999
DXF file: bg_BG-E1531-600BD-286-SS.dxf
999
Pro/ENGINEER 2020414 by Parametric Technology Corporation
  0
SECTION
  2
HEADER
  9
$ACADVER
  1
AC1032
  9
$DWGCODEPAGE
  3
ANSI_1252
  9
$EXTMAX
 10
22.0
 20
17.0
 30
0.0
  9
$EXTMIN
 10
0.0
 20
0.0
 30
0.0
  9
$LIMMIN
 10
0.0
 20
0.0
  9
$LIMMAX
 10
22.0
 20
17.0
  9
$VIEWCTR
 10
11.0
 20
8.5
  9
$VIEWSIZE
 40
17.0
  9
$CLAYER
  8
0
  9
$LTSCALE
 40
1.21
  9
$CELTYPE
  6
BYLAYER
  9
$DIMSCALE
 40
1.0
  9
$DIMASZ
 40
0.1875
  9
$DIMEXO
 40
0.0625
  9
$DIMDLI
 40
0.836
  9
$DIMEXE
 40
0.125
  9
$DIMCEN
 40
0.198
  9
$DIMLFAC
 40
10.0
  9
$DIMBLK
  1
_CLOSED
  9
$DIMALT
 70
0
  9
$DIMALTF
 40
25.4
  9
$DIMTXT
 40
0.15625
  9
$DIMTOL
 70
0
  9
$DIMLIM
 70
0
  9
$DIMTFAC
 40
1.0
  9
$DIMGAP
 40
0.09
  9
$DIMDSEP
 70
46
  9
$AUNITS
 70
0
  9
$PDMODE
 70
3
  9
$PDSIZE
 40
0.3125
  9
$HANDSEED
  5
448
  9
$TILEMODE
 70
1
  9
$MEASUREMENT
 70
0
  9
$INSUNITS
 70
1
  0
ENDSEC
  0
SECTION
  2
CLASSES
  0
CLASS
  1
ACDBDICTIONARYWDFLT
  2
AcDbDictionaryWithDefault
  3
AutoCAD 2000
 90
0
 91
1
280
0
281
0
  0
CLASS
  1
ACDBPLACEHOLDER
  2
AcDbPlaceHolder
  3
AutoCAD 2000
 90
0
 91
1
280
0
281
0
  0
CLASS
  1
LAYOUT
  2
AcDbLayout
  3
AutoCAD 2000
 90
0
 91
0
280
0
281
0
  0
ENDSEC
  0
SECTION
  2
TABLES
  0
TABLE
  2
VPORT
  5
8
100
AcDbSymbolTable
 70
2
  0
VPORT
  5
1F4
100
AcDbSymbolTableRecord
100
AcDbViewportTableRecord
  2
*ACTIVE
 70
0
 10
0.0
 20
0.0
 11
1.0
 21
1.0
 12
11.0
 22
8.5
 13
0.0
 23
0.0
 14
1.0
 24
1.0
 15
0.0
 25
0.0
 16
0.0
 26
0.0
 36
1.0
 17
0.0
 27
0.0
 37
0.0
 40
17.0
 41
1.2941176471
 42
50.0
 43
0.0
 44
0.0
 50
0.0
 51
0.0
 71
0
 72
100
 73
1
 74
1
 75
0
 76
0
 77
0
 78
0
  0
ENDTAB
  0
TABLE
  2
LTYPE
  5
5
100
AcDbSymbolTable
 70
6
  0
LTYPE
  5
14
100
AcDbSymbolTableRecord
100
AcDbLinetypeTableRecord
  2
BYBLOCK
 70
0
  3

 72
65
 73
0
 40
0.0
  0
LTYPE
  5
15
100
AcDbSymbolTableRecord
100
AcDbLinetypeTableRecord
  2
BYLAYER
 70
0
  3

 72
65
 73
0
 40
0.0
  0
LTYPE
  5
16
100
AcDbSymbolTableRecord
100
AcDbLinetypeTableRecord
  2
CONTINUOUS
 70
64
  3
Solid line
 72
65
 73
0
 40
0.0
  0
LTYPE
  5
1F5
100
AcDbSymbolTableRecord
100
AcDbLinetypeTableRecord
  2
CENTER
 70
64
  3
____ _ ____ _ ____ _ ____ _ ____ _ ____ _ ____
 72
65
 73
4
 40
0.6
 49
0.375
 74
0
 49
-0.075
 74
0
 49
0.075
 74
0
 49
-0.075
 74
0
  0
LTYPE
  5
1F6
100
AcDbSymbolTableRecord
100
AcDbLinetypeTableRecord
  2
HIDDEN
 70
64
  3
- - - - - - - - - - - - - - - - - - - -
 72
65
 73
2
 40
0.2
 49
0.1
 74
0
 49
-0.1
 74
0
  0
LTYPE
  5
1F7
100
AcDbSymbolTableRecord
100
AcDbLinetypeTableRecord
  2
PHANTOM
 70
64
  3
_____ _ _ _____ _ _ _____ _ _ _____
 72
65
 73
6
 40
0.8
 49
0.45
 74
0
 49
-0.05
 74
0
 49
0.1
 74
0
 49
-0.05
 74
0
 49
0.1
 74
0
 49
-0.05
 74
0
  0
LTYPE
  5
1F8
100
AcDbSymbolTableRecord
100
AcDbLinetypeTableRecord
  2
DOT
 70
64
  3
. . . . . . . . . . . . . . . . . . . .
 72
65
 73
2
 40
0.2
 49
0.1
 74
0
 49
-0.1
 74
0
  0
LTYPE
  5
1F9
100
AcDbSymbolTableRecord
100
AcDbLinetypeTableRecord
  2
DASHED
 70
64
  3
- - - - - - - - - - - - - - - - - - - -
 72
65
 73
2
 40
0.2
 49
0.1
 74
0
 49
-0.1
 74
0
  0
ENDTAB
  0
TABLE
  2
LAYER
  5
2
100
AcDbSymbolTable
 70
36
  0
LAYER
  5
10
100
AcDbSymbolTableRecord
100
AcDbLayerTableRecord
  2
0
 70
0
 62
7
  6
CONTINUOUS
370
-3
390
F
  0
LAYER
  5
1FA
100
AcDbSymbolTableRecord
100
AcDbLayerTableRecord
  2
DEFAULT_1
 70
0
 62
7
  6
CENTER
370
-3
390
F
  0
LAYER
  5
1FB
100
AcDbSymbolTableRecord
100
AcDbLayerTableRecord
  2
DEFAULT_2
 70
0
 62
7
  6
HIDDEN
370
-3
390
F
  0
LAYER
  5
1FC
100
AcDbSymbolTableRecord
100
AcDbLayerTableRecord
  2
DEFAULT_3
 70
0
 62
7
  6
PHANTOM
370
-3
390
F
  0
LAYER
  5
1FD
100
AcDbSymbolTableRecord
100
AcDbLayerTableRecord
  2
01_ALL_DTM_PLN
 70
0
 62
7
  6
CONTINUOUS
370
-3
390
F
  0
LAYER
  5
1FE
100
AcDbSymbolTableRecord
100
AcDbLayerTableRecord
  2
01__ASM_ALL_DTM_PLN
 70
0
 62
7
  6
CONTINUOUS
370
-3
390
F
  0
LAYER
  5
1FF
100
AcDbSymbolTableRecord
100
AcDbLayerTableRecord
  2
01__ASM_DEF_DTM_PLN
 70
0
 62
7
  6
CONTINUOUS
370
-3
390
F
  0
LAYER
  5
200
100
AcDbSymbolTableRecord
100
AcDbLayerTableRecord
  2
01___PRT_ALL_DTM_PLN
 70
0
 62
7
  6
CONTINUOUS
370
-3
390
F
  0
LAYER
  5
201
100
AcDbSymbolTableRecord
100
AcDbLayerTableRecord
  2
01___PRT_DEF_DTM_PLN
 70
0
 62
7
  6
CONTINUOUS
370
-3
390
F
  0
LAYER
  5
202
100
AcDbSymbolTableRecord
100
AcDbLayerTableRecord
  2
02_ALL_AXES
 70
0
 62
7
  6
CONTINUOUS
370
-3
390
F
  0
LAYER
  5
203
100
AcDbSymbolTableRecord
100
AcDbLayerTableRecord
  2
02__ASM_ALL_AXES
 70
0
 62
7
  6
CONTINUOUS
370
-3
390
F
  0
LAYER
  5
204
100
AcDbSymbolTableRecord
100
AcDbLayerTableRecord
  2
02___PRT_ALL_AXES
 70
0
 62
7
  6
CONTINUOUS
370
-3
390
F
  0
LAYER
  5
205
100
AcDbSymbolTableRecord
100
AcDbLayerTableRecord
  2
03_ALL_CURVES
 70
0
 62
7
  6
CONTINUOUS
370
-3
390
F
  0
LAYER
  5
206
100
AcDbSymbolTableRecord
100
AcDbLayerTableRecord
  2
03__ASM_ALL_CURVES
 70
0
 62
7
  6
CONTINUOUS
370
-3
390
F
  0
LAYER
  5
207
100
AcDbSymbolTableRecord
100
AcDbLayerTableRecord
  2
03___PRT_ALL_CURVES
 70
0
 62
7
  6
CONTINUOUS
370
-3
390
F
  0
LAYER
  5
208
100
AcDbSymbolTableRecord
100
AcDbLayerTableRecord
  2
04_ALL_DTM_PNT
 70
0
 62
7
  6
CONTINUOUS
370
-3
390
F
  0
LAYER
  5
209
100
AcDbSymbolTableRecord
100
AcDbLayerTableRecord
  2
04__ASM_ALL_DTM_PNT
 70
0
 62
7
  6
CONTINUOUS
370
-3
390
F
  0
LAYER
  5
20A
100
AcDbSymbolTableRecord
100
AcDbLayerTableRecord
  2
04___PRT_ALL_DTM_PNT
 70
0
 62
7
  6
CONTINUOUS
370
-3
390
F
  0
LAYER
  5
20B
100
AcDbSymbolTableRecord
100
AcDbLayerTableRecord
  2
05_ALL_DTM_CSYS
 70
0
 62
7
  6
CONTINUOUS
370
-3
390
F
  0
LAYER
  5
20C
100
AcDbSymbolTableRecord
100
AcDbLayerTableRecord
  2
05__ASM_ALL_DTM_CSYS
 70
0
 62
7
  6
CONTINUOUS
370
-3
390
F
  0
LAYER
  5
20D
100
AcDbSymbolTableRecord
100
AcDbLayerTableRecord
  2
05__ASM_DEF_DTM_CSYS
 70
0
 62
7
  6
CONTINUOUS
370
-3
390
F
  0
LAYER
  5
20E
100
AcDbSymbolTableRecord
100
AcDbLayerTableRecord
  2
05___PRT_ALL_DTM_CSYS
 70
0
 62
7
  6
CONTINUOUS
370
-3
390
F
  0
LAYER
  5
20F
100
AcDbSymbolTableRecord
100
AcDbLayerTableRecord
  2
05___PRT_DEF_DTM_CSYS
 70
0
 62
7
  6
CONTINUOUS
370
-3
390
F
  0
LAYER
  5
210
100
AcDbSymbolTableRecord
100
AcDbLayerTableRecord
  2
06_ALL_SURFS
 70
0
 62
7
  6
CONTINUOUS
370
-3
390
F
  0
LAYER
  5
211
100
AcDbSymbolTableRecord
100
AcDbLayerTableRecord
  2
06__ASM_ALL_SURFS
 70
0
 62
7
  6
CONTINUOUS
370
-3
390
F
  0
LAYER
  5
212
100
AcDbSymbolTableRecord
100
AcDbLayerTableRecord
  2
06___PRT_ALL_SURFS
 70
0
 62
7
  6
CONTINUOUS
370
-3
390
F
  0
LAYER
  5
213
100
AcDbSymbolTableRecord
100
AcDbLayerTableRecord
  2
07__ASM_ALL_SKELETONS
 70
0
 62
7
  6
CONTINUOUS
370
-3
390
F
  0
LAYER
  5
214
100
AcDbSymbolTableRecord
100
AcDbLayerTableRecord
  2
DTM
 70
0
 62
7
  6
CONTINUOUS
370
-3
390
F
  0
LAYER
  5
215
100
AcDbSymbolTableRecord
100
AcDbLayerTableRecord
  2
HIDE
 70
0
 62
7
  6
CONTINUOUS
370
-3
390
F
  0
ENDTAB
  0
TABLE
  2
STYLE
  5
3
100
AcDbSymbolTable
 70
1
  0
STYLE
  5
11
100
AcDbSymbolTableRecord
100
AcDbTextStyleTableRecord
  2
STANDARD
 70
0
 40
0.0
 41
0.8
 50
0.0
 71
0
 42
0.2
  3
SIMPLEX.SHX
  4

  0
STYLE
  5
216
100
AcDbSymbolTableRecord
100
AcDbTextStyleTableRecord
  2
TEXTSTYLE_1
 70
0
 40
0.0
 41
0.8
 50
0.0
 71
0
 42
0.2
  3
gdt
  4

  0
ENDTAB
  0
TABLE
  2
VIEW
  5
6
100
AcDbSymbolTable
 70
0
  0
ENDTAB
  0
TABLE
  2
UCS
  5
7
100
AcDbSymbolTable
 70
0
  0
ENDTAB
  0
TABLE
  2
APPID
  5
9
100
AcDbSymbolTable
 70
1
  0
APPID
  5
217
100
AcDbSymbolTableRecord
100
AcDbRegAppTableRecord
  2
ACAD
 70
0
  0
ENDTAB
  0
TABLE
  2
BLOCK_RECORD
  5
1
100
AcDbSymbolTable
 70
0
  0
BLOCK_RECORD
  5
218
100
AcDbSymbolTableRecord
100
AcDbBlockTableRecord
  2
*Model_Space
  0
BLOCK_RECORD
  5
219
100
AcDbSymbolTableRecord
100
AcDbBlockTableRecord
  2
*Paper_Space
  0
BLOCK_RECORD
  5
21A
100
AcDbSymbolTableRecord
100
AcDbBlockTableRecord
  2
_CLOSED
  0
ENDTAB
  0
TABLE
  2
DIMSTYLE
  5
A
100
AcDbSymbolTable
 70
1
100
AcDbDimStyleTable
 71
0
  0
DIMSTYLE
105
21B
100
AcDbSymbolTableRecord
100
AcDbDimStyleTableRecord
  2
STANDARD
 70
0
  3

  4

 40
1.0
 41
0.1875
 42
0.0625
 43
0.38
 44
0.125
 45
0.0
 46
0.0
 47
0.0001
 48
0.0001
140
0.15625
141
0.09
142
0.0
143
25.4
144
1.0
145
0.0
146
1.0
147
0.09
 71
0
 72
0
 73
1
 74
1
 75
0
 76
0
 77
0
 78
4
 79
1
170
0
171
3
172
0
173
0
174
0
175
0
176
0
177
0
178
0
270
2
179
4
271
4
272
4
273
2
274
2
275
0
280
0
281
0
282
0
283
1
284
4
285
0
286
0
287
3
288
0
340
11
278
46
341
21A
342
21A
343
21A
344
21A
  0
ENDTAB
  0
ENDSEC
  0
SECTION
  2
BLOCKS
  0
BLOCK
  5
20
100
AcDbEntity
  8
0
100
AcDbBlockBegin
  2
*Model_Space
 70
0
 10
0.0
 20
0.0
 30
0.0
  3
*Model_Space
  1

  0
ENDBLK
  5
21
100
AcDbEntity
  8
0
100
AcDbBlockEnd
  0
BLOCK
  5
1C
100
AcDbEntity
  8
0
100
AcDbBlockBegin
  2
*Paper_Space
 70
0
 10
0.0
 20
0.0
 30
0.0
  3
*Paper_Space
  1

  0
ENDBLK
  5
1D
100
AcDbEntity
  8
0
100
AcDbBlockEnd
  0
BLOCK
  5
21C
100
AcDbEntity
  8
0
100
AcDbBlockBegin
  2
_CLOSED
 70
64
 10
0.0
 20
0.0
  3
_CLOSED
  1

  0
LINE
  5
21D
100
AcDbEntity
  8
0
  6
BYBLOCK
 62
0
100
AcDbLine
 10
0.0
 20
0.0
 11
-1.0
 21
0.1666666667
  0
LINE
  5
21E
100
AcDbEntity
  8
0
  6
BYBLOCK
 62
0
100
AcDbLine
 10
-1.0
 20
0.1666666667
 11
-1.0
 21
-0.1666666667
  0
LINE
  5
21F
100
AcDbEntity
  8
0
  6
BYBLOCK
 62
0
100
AcDbLine
 10
-1.0
 20
-0.1666666667
 11
0.0
 21
0.0
  0
LINE
  5
220
100
AcDbEntity
  8
0
  6
BYBLOCK
 62
0
100
AcDbLine
 10
-1.0
 20
0.0
 11
0.0
 21
0.0
  0
ENDBLK
  5
221
100
AcDbEntity
  8
0
  6
BYBLOCK
 62
0
100
AcDbBlockEnd
  0
ENDSEC
  0
SECTION
  2
ENTITIES
  0
LINE
  5
222
100
AcDbEntity
  8
0
100
AcDbLine
 62
7
  6
BYLAYER
 10
0.0
 20
0.0
 11
0.0
 21
17.0
  0
LINE
  5
223
100
AcDbEntity
  8
0
100
AcDbLine
 62
7
  6
BYLAYER
 10
0.0
 20
0.0
 11
22.0
 21
0.0
  0
LINE
  5
224
100
AcDbEntity
  8
0
100
AcDbLine
 62
7
  6
BYLAYER
 10
0.0
 20
17.0
 11
22.0
 21
17.0
  0
LINE
  5
225
100
AcDbEntity
  8
0
100
AcDbLine
 62
7
  6
BYLAYER
 10
22.0
 20
0.0
 11
22.0
 21
17.0
  0
LINE
  5
226
100
AcDbEntity
  8
0
100
AcDbLine
 62
7
  6
BYLAYER
 10
3.61875
 20
3.571542
 11
3.61875
 21
4.936542
  0
LINE
  5
227
100
AcDbEntity
  8
0
100
AcDbLine
 62
7
  6
BYLAYER
 10
3.68375
 20
3.5473791368
 11
3.68375
 21
5.046542
  0
LINE
  5
228
100
AcDbEntity
  8
0
100
AcDbLine
 62
7
  6
BYLAYER
 10
4.19375
 20
3.571542
 11
4.19375
 21
3.546542
  0
LWPOLYLINE
  5
229
100
AcDbEntity
  8
0
100
AcDbPolyline
 62
7
  6
BYLAYER
 90
73
 70
0
 10
6.68125
 20
3.205178
 10
6.690065526
 20
3.2053115367
 10
6.7000455195
 20
3.2057846864
 10
6.7098791693
 20
3.2065858589
 10
6.7195580282
 20
3.2077010773
 10
6.7290738641
 20
3.2091167825
 10
6.7384191679
 20
3.210819832
 10
6.7475871759
 20
3.2127974972
 10
6.7565717787
 20
3.2150374418
 10
6.7653675666
 20
3.2175277262
 10
6.773969824
 20
3.2202560846
 10
6.7823749246
 20
3.2232091862
 10
6.7905797221
 20
3.2263739757
 10
6.7985815654
 20
3.2297379067
 10
6.8063783264
 20
3.2332889526
 10
6.8139682976
 20
3.2370155626
 10
6.8213501737
 20
3.2409066461
 10
6.8285230417
 20
3.2449515641
 10
6.8354863461
 20
3.2491401078
 10
6.8422398932
 20
3.253462473
 10
6.8487842083
 20
3.2579086481
 10
6.8551207263
 20
3.2624684449
 10
6.86125053
 20
3.2671316735
 10
6.8671753776
 20
3.2718889307
 10
6.8728960511
 20
3.2767302593
 10
6.8784139258
 20
3.2816463158
 10
6.8837304792
 20
3.286627975
 10
6.8888474609
 20
3.2916664712
 10
6.8937668453
 20
3.296753359
 10
6.8984907385
 20
3.301880413
 10
6.9030217926
 20
3.3070400902
 10
6.9073623154
 20
3.312224085
 10
6.9115178901
 20
3.3174271999
 10
6.9154931086
 20
3.322643452
 10
6.9192937425
 20
3.3278689823
 10
6.922925069
 20
3.333099982
 10
6.9263922573
 20
3.3383331607
 10
6.9297002985
 20
3.3435656309
 10
6.9328540183
 20
3.3487949081
 10
6.9358580197
 20
3.3540187934
 10
6.9387169245
 20
3.3592357884
 10
6.9414355475
 20
3.3644455116
 10
6.9440167515
 20
3.3696444533
 10
6.9464646122
 20
3.3748319223
 10
6.9487799927
 20
3.3800004896
 10
6.9509651168
 20
3.3851442489
 10
6.9530227753
 20
3.3902579116
 10
6.9549557759
 20
3.3953360465
 10
6.9567672919
 20
3.4003740144
 10
6.9584606072
 20
3.4053674124
 10
6.9600388368
 20
3.4103112073
 10
6.9615057241
 20
3.415202234
 10
6.9628634481
 20
3.4200317394
 10
6.9641173945
 20
3.4248021253
 10
6.9652636107
 20
3.4294780603
 10
6.9663033223
 20
3.434037861
 10
6.967235462
 20
3.4384430703
 10
6.96806124
 20
3.4426564647
 10
6.9687857313
 20
3.4466531798
 10
6.969412479
 20
3.4503940527
 10
6.969953201
 20
3.4538863416
 10
6.9704152841
 20
3.4571143133
 10
6.9708121522
 20
3.4601104434
 10
6.9711539159
 20
3.4628962965
 10
6.9714491545
 20
3.4654923905
 10
6.971705512
 20
3.4679218906
 10
6.9719289234
 20
3.4702017615
 10
6.9721251566
 20
3.4723562471
 10
6.9722974798
 20
3.4743898049
 10
6.9724491648
 20
3.476311088
 10
6.9725833399
 20
3.4781321483
 10
6.9727026229
 20
3.4798635465
 10
6.9729055612
 20
3.4831036041
  0
LINE
  5
22A
100
AcDbEntity
  8
0
100
AcDbLine
 62
7
  6
BYLAYER
 10
4.75625
 20
4.4125984201
 11
4.75625
 21
4.0804855799
  0
LINE
  5
22B
100
AcDbEntity
  8
0
100
AcDbLine
 62
7
  6
BYLAYER
 10
4.76875
 20
4.121542
 11
4.76875
 21
4.371542
  0
LINE
  5
22C
100
AcDbEntity
  8
0
100
AcDbLine
 62
7
  6
BYLAYER
 10
7.38125
 20
3.509042
 11
7.21325
 21
3.509042
  0
LINE
  5
22D
100
AcDbEntity
  8
0
100
AcDbLine
 62
7
  6
BYLAYER
 10
4.19375
 20
3.546542
 11
5.59375
 21
3.546542
  0
LINE
  5
22E
100
AcDbEntity
  8
0
100
AcDbLine
 62
7
  6
BYLAYER
 10
3.68375
 20
3.5473791368
 11
4.19375
 21
3.5473791368
  0
LINE
  5
22F
100
AcDbEntity
  8
0
100
AcDbLine
 62
7
  6
BYLAYER
 10
5.59375
 20
3.5473791368
 11
5.74875
 21
3.5473791368
  0
LINE
  5
230
100
AcDbEntity
  8
0
100
AcDbLine
 62
7
  6
BYLAYER
 10
6.3656500101
 20
3.740792
 11
5.91875
 21
3.634042
  0
LINE
  5
231
100
AcDbEntity
  8
0
100
AcDbLine
 62
7
  6
BYLAYER
 10
7.21325
 20
3.8318439045
 11
7.08125
 21
3.8202954009
  0
LINE
  5
232
100
AcDbEntity
  8
0
100
AcDbLine
 62
7
  6
BYLAYER
 10
5.91875
 20
3.571542
 11
5.74875
 21
3.571542
  0
LINE
  5
233
100
AcDbEntity
  8
0
100
AcDbLine
 62
7
  6
BYLAYER
 10
3.61875
 20
3.571542
 11
3.68375
 21
3.571542
  0
LINE
  5
234
100
AcDbEntity
  8
0
100
AcDbLine
 62
7
  6
BYLAYER
 10
4.19375
 20
3.571542
 11
5.59375
 21
3.571542
  0
LINE
  5
235
100
AcDbEntity
  8
0
100
AcDbLine
 62
7
  6
BYLAYER
 10
5.01875
 20
4.371542
 11
5.01875
 21
4.121542
  0
LINE
  5
236
100
AcDbEntity
  8
0
100
AcDbLine
 62
7
  6
BYLAYER
 10
5.03125
 20
4.4125984201
 11
5.03125
 21
4.0804855799
  0
LINE
  5
237
100
AcDbEntity
  8
0
100
AcDbLine
 62
7
  6
BYLAYER
 10
6.3925817606
 20
3.6663270253
 11
6.36565
 21
3.668542
  0
LINE
  5
238
100
AcDbEntity
  8
0
100
AcDbLine
 62
7
  6
BYLAYER
 10
5.9746125013
 20
3.993667
 11
6.3097875088
 21
3.993667
  0
LINE
  5
239
100
AcDbEntity
  8
0
100
AcDbLine
 62
7
  6
BYLAYER
 10
4.75625
 20
4.0804855799
 11
5.03125
 21
4.0804855799
  0
LINE
  5
23A
100
AcDbEntity
  8
0
100
AcDbLine
 62
7
  6
BYLAYER
 10
4.75625
 20
4.096542
 11
5.03125
 21
4.096542
  0
LINE
  5
23B
100
AcDbEntity
  8
0
100
AcDbLine
 62
7
  6
BYLAYER
 10
6.3097875088
 20
4.171542
 11
5.9746125013
 21
4.171542
  0
LINE
  5
23C
100
AcDbEntity
  8
0
100
AcDbLine
 62
7
  6
BYLAYER
 10
5.59375
 20
3.571542
 11
5.59375
 21
3.546542
  0
LINE
  5
23D
100
AcDbEntity
  8
0
100
AcDbLine
 62
7
  6
BYLAYER
 10
6.3097875088
 20
4.321542
 11
5.9746125013
 21
4.321542
  0
LINE
  5
23E
100
AcDbEntity
  8
0
100
AcDbLine
 62
7
  6
BYLAYER
 10
4.79375
 20
4.396542
 11
4.99375
 21
4.396542
  0
LINE
  5
23F
100
AcDbEntity
  8
0
100
AcDbLine
 62
7
  6
BYLAYER
 10
4.75625
 20
4.4125984201
 11
5.03125
 21
4.4125984201
  0
LINE
  5
240
100
AcDbEntity
  8
0
100
AcDbLine
 62
7
  6
BYLAYER
 10
5.74875
 20
5.046542
 11
5.74875
 21
3.5473791368
  0
LINE
  5
241
100
AcDbEntity
  8
0
100
AcDbLine
 62
7
  6
BYLAYER
 10
5.9746125013
 20
4.499417
 11
6.3097875088
 21
4.499417
  0
LINE
  5
242
100
AcDbEntity
  8
0
100
AcDbLine
 62
7
  6
BYLAYER
 10
5.81375
 20
3.571542
 11
5.81375
 21
4.986542
  0
LINE
  5
243
100
AcDbEntity
  8
0
100
AcDbLine
 62
7
  6
BYLAYER
 10
5.85375
 20
3.571542
 11
5.85375
 21
4.946542
  0
LINE
  5
244
100
AcDbEntity
  8
0
100
AcDbLine
 62
7
  6
BYLAYER
 10
5.91875
 20
4.946542
 11
5.91875
 21
3.571542
  0
LINE
  5
245
100
AcDbEntity
  8
0
100
AcDbLine
 62
7
  6
BYLAYER
 10
7.21325
 20
4.690542
 11
7.0415244203
 21
4.690542
  0
LINE
  5
246
100
AcDbEntity
  8
0
100
AcDbLine
 62
7
  6
BYLAYER
 10
5.9746125013
 20
4.499417
 11
5.9746125013
 21
3.993667
  0
LINE
  5
247
100
AcDbEntity
  8
0
100
AcDbLine
 62
7
  6
BYLAYER
 10
6.07525
 20
5.296542
 11
6.07525
 21
5.146542
  0
LINE
  5
248
100
AcDbEntity
  8
0
100
AcDbLine
 62
7
  6
BYLAYER
 10
6.4155240893
 20
4.8286438427
 11
6.36565
 21
4.824542
  0
LINE
  5
249
100
AcDbEntity
  8
0
100
AcDbLine
 62
7
  6
BYLAYER
 10
5.91875
 20
4.946542
 11
5.85375
 21
4.946542
  0
LINE
  5
24A
100
AcDbEntity
  8
0
100
AcDbLine
 62
7
  6
BYLAYER
 10
7.38125
 20
4.984042
 11
7.21325
 21
4.984042
  0
LINE
  5
24B
100
AcDbEntity
  8
0
100
AcDbLine
 62
7
  6
BYLAYER
 10
5.81375
 20
4.986542
 11
5.74875
 21
4.986542
  0
LINE
  5
24C
100
AcDbEntity
  8
0
100
AcDbLine
 62
7
  6
BYLAYER
 10
3.68375
 20
4.986542
 11
3.66875
 21
4.986542
  0
LINE
  5
24D
100
AcDbEntity
  8
0
100
AcDbLine
 62
7
  6
BYLAYER
 10
6.3656500101
 20
4.752292
 11
5.91875
 21
4.859042
  0
LWPOLYLINE
  5
24E
100
AcDbEntity
  8
0
100
AcDbPolyline
 62
7
  6
BYLAYER
 90
73
 70
0
 10
6.3897972545
 20
3.4798653875
 10
6.3899265323
 20
3.4779938346
 10
6.3900741691
 20
3.4760066166
 10
6.3902442792
 20
3.473883458
 10
6.3904415156
 20
3.4716064918
 10
6.3906717663
 20
3.4691534465
 10
6.3909404514
 20
3.4665165429
 10
6.3912547984
 20
3.4636783987
 10
6.3916201022
 20
3.46064615
 10
6.3920426094
 20
3.4574215401
 10
6.392529085
 20
3.4540056011
 10
6.393086174
 20
3.4504024226
 10
6.3937220271
 20
3.4466086514
 10
6.3944450889
 20
3.4426228844
 10
6.3952635238
 20
3.4384480517
 10
6.3961873199
 20
3.4340804824
 10
6.3972211322
 20
3.4295426238
 10
6.3983709309
 20
3.4248481278
 10
6.3996391902
 20
3.4200220364
 10
6.4010280013
 20
3.4150861947
 10
6.4025375526
 20
3.4100647509
 10
6.4041655211
 20
3.4049850038
 10
6.4059131064
 20
3.3998589995
 10
6.4077774095
 20
3.3947080256
 10
6.409762725
 20
3.3895313441
 10
6.4118711338
 20
3.384334475
 10
6.4141054968
 20
3.3791208478
 10
6.416468335
 20
3.3738947441
 10
6.4189620944
 20
3.3686599763
 10
6.4215887926
 20
3.3634204642
 10
6.4243502681
 20
3.3581804015
 10
6.4272483093
 20
3.3529440391
 10
6.4302845079
 20
3.3477159439
 10
6.433460413
 20
3.342500708
 10
6.4367773222
 20
3.3373032878
 10
6.4402364098
 20
3.3321287612
 10
6.4438389012
 20
3.3269820788
 10
6.4475852593
 20
3.3218692003
 10
6.4514783008
 20
3.3167929235
 10
6.4555201658
 20
3.311757288
 10
6.4597135465
 20
3.3067659432
 10
6.4640610065
 20
3.3018228952
 10
6.4685645811
 20
3.2969321203
 10
6.4732261459
 20
3.29209769
 10
6.4780475591
 20
3.2873239608
 10
6.4830306618
 20
3.2826155775
 10
6.4881772638
 20
3.2779774918
 10
6.4934891417
 20
3.2734149689
 10
6.4989680159
 20
3.2689336125
 10
6.5046155276
 20
3.2645393873
 10
6.5104333547
 20
3.2602385384
 10
6.5164228935
 20
3.2560378364
 10
6.5225861914
 20
3.2519439451
 10
6.5289248713
 20
3.2479640046
 10
6.5354402231
 20
3.2441046376
 10
6.5421331547
 20
3.2403726982
 10
6.5490044113
 20
3.2367754779
 10
6.5560545439
 20
3.2333207296
 10
6.5632838989
 20
3.2300166808
 10
6.5706925814
 20
3.2268720592
 10
6.5782804437
 20
3.2238961078
 10
6.5860470793
 20
3.2210986001
 10
6.5939916377
 20
3.2184899166
 10
6.6021129233
 20
3.2160809867
 10
6.6104091898
 20
3.2138824612
 10
6.6188778628
 20
3.2119044512
 10
6.6275160095
 20
3.2101574514
 10
6.6363201188
 20
3.2086524802
 10
6.6452861406
 20
3.2074010774
 10
6.654409391
 20
3.2064153316
 10
6.6636845619
 20
3.2057078903
 10
6.6731068699
 20
3.2052919504
 10
6.68125
 20
3.205178
  0
LINE
  5
24F
100
AcDbEntity
  8
0
100
AcDbLine
 62
7
  6
BYLAYER
 10
6.3895806816
 20
3.4833387006
 11
6.3897972545
 21
3.4798653875
  0
LINE
  5
250
100
AcDbEntity
  8
0
100
AcDbLine
 62
7
  6
BYLAYER
 10
6.3894044457
 20
3.4865553604
 11
6.3895806816
 21
3.4833387006
  0
LINE
  5
251
100
AcDbEntity
  8
0
100
AcDbLine
 62
7
  6
BYLAYER
 10
6.3892551609
 20
3.4896225478
 11
6.3894044457
 21
3.4865553604
  0
LINE
  5
252
100
AcDbEntity
  8
02___PRT_ALL_AXES
100
AcDbLine
 62
7
  6
BYLAYER
 10
6.3473611111
 20
5.009042
 11
6.3586984218
 21
4.7539525103
  0
LINE
  5
253
100
AcDbEntity
  8
0
100
AcDbLine
 62
7
  6
BYLAYER
 10
6.3890623027
 20
3.4941495512
 11
6.3892551609
 21
3.4896225478
  0
LINE
  5
254
100
AcDbEntity
  8
0
100
AcDbLine
 62
7
  6
BYLAYER
 10
6.3888912955
 20
3.498786994
 11
6.3890623027
 21
3.4941495512
  0
LINE
  5
255
100
AcDbEntity
  8
0
100
AcDbLine
 62
7
  6
BYLAYER
 10
6.3886811088
 20
3.505398737
 11
6.3888912955
 21
3.498786994
  0
LINE
  5
256
100
AcDbEntity
  8
0
100
AcDbLine
 62
7
  6
BYLAYER
 10
6.3884320242
 20
3.5146493856
 11
6.3886811088
 21
3.505398737
  0
LINE
  5
257
100
AcDbEntity
  8
0
100
AcDbLine
 62
7
  6
BYLAYER
 10
6.3880891612
 20
3.5300086611
 11
6.3884320242
 21
3.5146493856
  0
LINE
  5
258
100
AcDbEntity
  8
0
100
AcDbLine
 62
7
  6
BYLAYER
 10
6.3875352752
 20
3.5612197403
 11
6.3880891612
 21
3.5300086611
  0
LINE
  5
259
100
AcDbEntity
  8
0
100
AcDbLine
 62
7
  6
BYLAYER
 10
6.3864836164
 20
3.6404261773
 11
6.3875352752
 21
3.5612197403
  0
LINE
  5
25A
100
AcDbEntity
  8
0
100
AcDbLine
 62
7
  6
BYLAYER
 10
6.3861878542
 20
3.6668528855
 11
6.3864836164
 21
3.6404261773
  0
LINE
  5
25B
100
AcDbEntity
  8
0
100
AcDbLine
 62
7
  6
BYLAYER
 10
6.3097875088
 20
4.499417
 11
6.3097875088
 21
3.993667
  0
LINE
  5
25C
100
AcDbEntity
  8
0
100
AcDbLine
 62
7
  6
BYLAYER
 10
6.33125
 20
5.146542
 11
6.33125
 21
5.009042
  0
LINE
  5
25D
100
AcDbEntity
  8
0
100
AcDbLine
 62
7
  6
BYLAYER
 10
6.36565
 20
4.824542
 11
6.36565
 21
3.668542
  0
LWPOLYLINE
  5
25E
100
AcDbEntity
  8
0
100
AcDbPolyline
 62
7
  6
BYLAYER
 90
59
 70
0
 10
6.68125
 20
5.0190697542
 10
6.6722094133
 20
5.0189229694
 10
6.6619884737
 20
5.0184037778
 10
6.6520020317
 20
5.0175336125
 10
6.6422520953
 20
5.0163355156
 10
6.6327422321
 20
5.0148311542
 10
6.6234748038
 20
5.0130407912
 10
6.61445104
 20
5.0109833343
 10
6.6056713148
 20
5.0086764301
 10
6.5971351086
 20
5.0061365937
 10
6.5888406558
 20
5.0033803899
 10
6.5807853467
 20
5.000424025
 10
6.5729660234
 20
4.9972823922
 10
6.5653790627
 20
4.9939691128
 10
6.5580206403
 20
4.9904966924
 10
6.5508861173
 20
4.9868762556
 10
6.5439724949
 20
4.9831188572
 10
6.5372757662
 20
4.9792342639
 10
6.5307928391
 20
4.9752320523
 10
6.5245200606
 20
4.9711210208
 10
6.5184531336
 20
4.96691004
 10
6.5125874984
 20
4.9626075216
 10
6.5069185722
 20
4.9582211251
 10
6.5014413804
 20
4.9537574708
 10
6.4961525298
 20
4.9492238094
 10
6.4910473899
 20
4.9446257776
 10
6.4861245552
 20
4.9399714603
 10
6.4813815437
 20
4.9352677817
 10
6.4768161344
 20
4.930521714
 10
6.4724258746
 20
4.9257398252
 10
6.4682081704
 20
4.920928366
 10
6.4641600911
 20
4.9160935033
 10
6.4602782311
 20
4.9112414505
 10
6.4565590467
 20
4.9063780566
 10
6.4529991905
 20
4.9015091654
 10
6.4495950199
 20
4.8966399724
 10
6.4463436252
 20
4.8917765164
 10
6.4432417792
 20
4.8869242645
 10
6.4402863219
 20
4.8820886724
 10
6.4374739785
 20
4.8772749149
 10
6.4348014043
 20
4.8724879505
 10
6.432265418
 20
4.8677329641
 10
6.4298618544
 20
4.8630131613
 10
6.4275874745
 20
4.8583333523
 10
6.4254363752
 20
4.8536924804
 10
6.4234035917
 20
4.849090943
 10
6.4214836158
 20
4.8445276975
 10
6.4196713634
 20
4.8400017122
 10
6.4179620454
 20
4.8355116616
 10
6.4163511723
 20
4.8310559729
 10
6.4148345022
 20
4.8266327097
 10
6.4134076421
 20
4.822238311
 10
6.4120682445
 20
4.817874579
 10
6.4108113742
 20
4.8135339478
 10
6.4096409492
 20
4.809239849
 10
6.4085575659
 20
4.8050080242
 10
6.407561001
 20
4.8008543271
 10
6.4066503879
 20
4.796795342
 10
6.4057699685
 20
4.7925790991
  0
LINE
  5
25F
100
AcDbEntity
  8
0
100
AcDbLine
 62
7
  6
BYLAYER
 10
6.3473611111
 20
5.009042
 11
6.33125
 21
5.009042
  0
LINE
  5
260
100
AcDbEntity
  8
0
100
AcDbLine
 62
7
  6
BYLAYER
 10
3.68375
 20
5.046542
 11
5.74875
 21
5.046542
  0
LINE
  5
261
100
AcDbEntity
  8
0
100
AcDbLine
 62
7
  6
BYLAYER
 10
5.85375
 20
4.946542
 11
5.81375
 21
4.986542
  0
LINE
  5
262
100
AcDbEntity
  8
0
100
AcDbLine
 62
7
  6
BYLAYER
 10
6.3949834896
 20
4.0560992442
 11
6.3943515792
 21
3.9334935585
  0
LINE
  5
263
100
AcDbEntity
  8
0
100
AcDbLine
 62
7
  6
BYLAYER
 10
6.3943515792
 20
3.9334935585
 11
6.3938178368
 21
3.8403611594
  0
LINE
  5
264
100
AcDbEntity
  8
0
100
AcDbLine
 62
7
  6
BYLAYER
 10
6.3938178368
 20
3.8403611594
 11
6.3933123072
 21
3.7618916752
  0
LINE
  5
265
100
AcDbEntity
  8
0
100
AcDbLine
 62
7
  6
BYLAYER
 10
6.3933123072
 20
3.7618916752
 11
6.3928322574
 21
3.6966624112
  0
LINE
  5
266
100
AcDbEntity
  8
0
100
AcDbLine
 62
7
  6
BYLAYER
 10
6.3928322574
 20
3.6966624112
 11
6.3924284039
 21
3.6490168521
  0
LINE
  5
267
100
AcDbEntity
  8
0
100
AcDbLine
 62
7
  6
BYLAYER
 10
6.3924284039
 20
3.6490168521
 11
6.3920481474
 21
3.6102907433
  0
LINE
  5
268
100
AcDbEntity
  8
0
100
AcDbLine
 62
7
  6
BYLAYER
 10
6.3984285147
 20
4.6553358057
 11
6.3949834896
 21
4.0560992442
  0
LINE
  5
269
100
AcDbEntity
  8
0
100
AcDbLine
 62
7
  6
BYLAYER
 10
6.3920481474
 20
3.6102907433
 11
6.3916939628
 21
3.5796091006
  0
LINE
  5
26A
100
AcDbEntity
  8
0
100
AcDbLine
 62
7
  6
BYLAYER
 10
6.398954009
 20
4.6963645973
 11
6.3984285147
 21
4.6553358057
  0
LINE
  5
26B
100
AcDbEntity
  8
0
100
AcDbLine
 62
7
  6
BYLAYER
 10
6.3916939628
 20
3.5796091006
 11
6.3913652679
 21
3.555802017
  0
LINE
  5
26C
100
AcDbEntity
  8
0
100
AcDbLine
 62
7
  6
BYLAYER
 10
6.3913652679
 20
3.555802017
 11
6.3910609475
 21
3.5377932919
  0
LWPOLYLINE
  5
26D
100
AcDbEntity
  8
0
100
AcDbPolyline
 62
7
  6
BYLAYER
 90
3
 70
0
 10
6.3993037219
 20
4.7163071821
 10
6.3992987891
 20
4.7160640025
 10
6.398954009
 20
4.6963645973
  0
LINE
  5
26E
100
AcDbEntity
  8
0
100
AcDbLine
 62
7
  6
BYLAYER
 10
6.3910609475
 20
3.5377932919
 11
6.3908216297
 21
3.5264171992
  0
LINE
  5
26F
100
AcDbEntity
  8
0
100
AcDbLine
 62
7
  6
BYLAYER
 10
6.3908216297
 20
3.5264171992
 11
6.3906749395
 21
3.5207277313
  0
LINE
  5
270
100
AcDbEntity
  8
0
100
AcDbLine
 62
7
  6
BYLAYER
 10
6.3906749395
 20
3.5207277313
 11
6.3905809081
 21
3.5176571043
  0
LINE
  5
271
100
AcDbEntity
  8
0
100
AcDbLine
 62
7
  6
BYLAYER
 10
6.3905809081
 20
3.5176571043
 11
6.3905313343
 21
3.5162607312
  0
LINE
  5
272
100
AcDbEntity
  8
0
100
AcDbLine
 62
7
  6
BYLAYER
 10
6.3905313343
 20
3.5162607312
 11
6.3905142369
 21
3.5158287875
  0
LINE
  5
273
100
AcDbEntity
  8
0
100
AcDbLine
 62
7
  6
BYLAYER
 10
6.07525
 20
5.146542
 11
7.28725
 21
5.146542
  0
LINE
  5
274
100
AcDbEntity
  8
0
100
AcDbLine
 62
7
  6
BYLAYER
 10
6.9692154551
 20
3.7578819918
 11
7.08125
 21
3.8202954009
  0
LINE
  5
275
100
AcDbEntity
  8
0
100
AcDbLine
 62
7
  6
BYLAYER
 10
6.07525
 20
5.296542
 11
7.28725
 21
5.296542
  0
LINE
  5
276
100
AcDbEntity
  8
0
100
AcDbLine
 62
7
  6
BYLAYER
 10
6.9625938274
 20
4.7388908558
 11
7.0493819411
 21
4.690542
  0
LINE
  5
277
100
AcDbEntity
  8
03___PRT_ALL_CURVES
100
AcDbLine
 62
7
  6
BYLAYER
 10
6.68125
 20
5.0190697542
 11
6.68125
 21
3.205178
  0
LINE
  5
278
100
AcDbEntity
  8
0
100
AcDbLine
 62
7
  6
BYLAYER
 10
6.9719914054
 20
3.515693748
 11
6.9719927885
 21
3.5156640146
  0
LINE
  5
279
100
AcDbEntity
  8
0
100
AcDbLine
 62
7
  6
BYLAYER
 10
6.9719902859
 20
3.5157212778
 11
6.9719584811
 21
3.5165321087
  0
LINE
  5
27A
100
AcDbEntity
  8
0
100
AcDbLine
 62
7
  6
BYLAYER
 10
6.9719584811
 20
3.5165321087
 11
6.9719004446
 21
3.5182257972
  0
LINE
  5
27B
100
AcDbEntity
  8
0
100
AcDbLine
 62
7
  6
BYLAYER
 10
6.9719004446
 20
3.5182257972
 11
6.971796795
 21
3.5217430757
  0
LINE
  5
27C
100
AcDbEntity
  8
0
100
AcDbLine
 62
7
  6
BYLAYER
 10
6.971796795
 20
3.5217430757
 11
6.9716738482
 21
3.5266086359
  0
LWPOLYLINE
  5
27D
100
AcDbEntity
  8
0
100
AcDbPolyline
 62
7
  6
BYLAYER
 90
69
 70
0
 10
6.9619069263
 20
4.7528463861
 10
6.9617837588
 20
4.7546651021
 10
6.9616435801
 20
4.7565833777
 10
6.9614834374
 20
4.7586113184
 10
6.9612991207
 20
4.7607684794
 10
6.961086371
 20
4.7630672071
 10
6.9608384941
 20
4.7655371887
 10
6.9605478421
 20
4.7682048887
 10
6.9602063497
 20
4.7710886051
 10
6.9598027733
 20
4.7742205718
 10
6.9593311488
 20
4.777582191
 10
6.9587826168
 20
4.7811740192
 10
6.9581524806
 20
4.7849687946
 10
6.9574353052
 20
4.788948057
 10
6.9566281644
 20
4.7930836515
 10
6.9557288366
 20
4.797350013
 10
6.9547369483
 20
4.8017190595
 10
6.9536564932
 20
4.8061515379
 10
6.9524813221
 20
4.8106548654
 10
6.9512092901
 20
4.8152199609
 10
6.9498333063
 20
4.8198552436
 10
6.9483469803
 20
4.8245642006
 10
6.9467434148
 20
4.8293500478
 10
6.9450149464
 20
4.8342163373
 10
6.9431546037
 20
4.839162904
 10
6.941153315
 20
4.8441934839
 10
6.9390073764
 20
4.8492972287
 10
6.936711424
 20
4.8544677029
 10
6.9342623235
 20
4.859693872
 10
6.9316573456
 20
4.8649656989
 10
6.9288940006
 20
4.8702737604
 10
6.9259710021
 20
4.875607116
 10
6.9228846975
 20
4.8809597259
 10
6.9196326018
 20
4.8863236074
 10
6.916211296
 20
4.8916924658
 10
6.9126177965
 20
4.897059269
 10
6.9088492548
 20
4.9024167796
 10
6.9049029932
 20
4.9077575032
 10
6.9007765148
 20
4.9130736826
 10
6.8964674925
 20
4.9183573188
 10
6.8919738065
 20
4.9236001341
 10
6.8872941656
 20
4.9287934627
 10
6.8824265907
 20
4.9339304977
 10
6.8773708551
 20
4.9390026727
 10
6.8721223014
 20
4.9440056674
 10
6.8666775737
 20
4.94893324
 10
6.8610324153
 20
4.9537793754
 10
6.8551827612
 20
4.9585372025
 10
6.8491245368
 20
4.9631991745
 10
6.8428536918
 20
4.9677570211
 10
6.8363662198
 20
4.9722017118
 10
6.8296582548
 20
4.9765234013
 10
6.822726273
 20
4.9807122341
 10
6.8155677457
 20
4.9847581683
 10
6.80817939
 20
4.9886509662
 10
6.8005585183
 20
4.99237929
 10
6.7927024853
 20
4.9959309777
 10
6.7846090874
 20
4.9992928054
 10
6.7762765548
 20
5.0024504714
 10
6.7677035835
 20
5.0053885505
 10
6.7588895696
 20
5.0080903832
 10
6.7498346659
 20
5.0105387812
 10
6.7405405146
 20
5.0127171468
 10
6.7310097511
 20
5.0146081257
 10
6.7212457581
 20
5.0161933204
 10
6.7112530774
 20
5.0174531687
 10
6.7010374703
 20
5.0183669126
 10
6.6906036917
 20
5.0189126304
 10
6.68125
 20
5.0190697542
  0
LINE
  5
27E
100
AcDbEntity
  8
0
100
AcDbLine
 62
7
  6
BYLAYER
 10
6.9621126929
 20
4.7494583979
 11
6.9619069263
 21
4.7528463861
  0
LINE
  5
27F
100
AcDbEntity
  8
0
100
AcDbLine
 62
7
  6
BYLAYER
 10
6.9622786754
 20
4.746313953
 11
6.9621126929
 21
4.7494583979
  0
LINE
  5
280
100
AcDbEntity
  8
0
100
AcDbLine
 62
7
  6
BYLAYER
 10
6.9624170945
 20
4.7433252428
 11
6.9622786754
 21
4.746313953
  0
LINE
  5
281
100
AcDbEntity
  8
0
100
AcDbLine
 62
7
  6
BYLAYER
 10
6.9625370648
 20
4.7404008422
 11
6.9624170945
 21
4.7433252428
  0
LINE
  5
282
100
AcDbEntity
  8
0
100
AcDbLine
 62
7
  6
BYLAYER
 10
6.9626959288
 20
4.7359501876
 11
6.9625370648
 21
4.7404008422
  0
LINE
  5
283
100
AcDbEntity
  8
0
100
AcDbLine
 62
7
  6
BYLAYER
 10
6.9628862187
 20
4.7295820844
 11
6.9626959288
 21
4.7359501876
  0
LINE
  5
284
100
AcDbEntity
  8
0
100
AcDbLine
 62
7
  6
BYLAYER
 10
6.9631094808
 20
4.7204165827
 11
6.9628862187
 21
4.7295820844
  0
LINE
  5
285
100
AcDbEntity
  8
0
100
AcDbLine
 62
7
  6
BYLAYER
 10
6.9716738482
 20
3.5266086359
 11
6.9714291695
 21
3.538316539
  0
LINE
  5
286
100
AcDbEntity
  8
0
100
AcDbLine
 62
7
  6
BYLAYER
 10
6.9634167943
 20
4.7043845041
 11
6.9631094808
 21
4.7204165827
  0
LINE
  5
287
100
AcDbEntity
  8
0
100
AcDbLine
 62
7
  6
BYLAYER
 10
6.9714291695
 20
3.538316539
 11
6.971118525
 21
3.5568702717
  0
LINE
  5
288
100
AcDbEntity
  8
0
100
AcDbLine
 62
7
  6
BYLAYER
 10
6.971118525
 20
3.5568702717
 11
6.9707817348
 21
3.5815478484
  0
LINE
  5
289
100
AcDbEntity
  8
0
100
AcDbLine
 62
7
  6
BYLAYER
 10
6.9638659747
 20
4.6730317518
 11
6.9634167943
 21
4.7043845041
  0
LINE
  5
28A
100
AcDbEntity
  8
0
100
AcDbLine
 62
7
  6
BYLAYER
 10
6.9707817348
 20
3.5815478484
 11
6.9704181235
 21
3.6134839859
  0
LINE
  5
28B
100
AcDbEntity
  8
0
100
AcDbLine
 62
7
  6
BYLAYER
 10
6.9704181235
 20
3.6134839859
 11
6.9700278049
 21
3.6538599323
  0
LINE
  5
28C
100
AcDbEntity
  8
0
100
AcDbLine
 62
7
  6
BYLAYER
 10
6.9700278049
 20
3.6538599323
 11
6.9696131958
 21
3.7036077643
  0
LINE
  5
28D
100
AcDbEntity
  8
0
100
AcDbLine
 62
7
  6
BYLAYER
 10
6.9647654118
 20
4.5791174617
 11
6.9638659747
 21
4.6730317518
  0
LINE
  5
28E
100
AcDbEntity
  8
0
100
AcDbLine
 62
7
  6
BYLAYER
 10
6.9696131958
 20
3.7036077643
 11
6.9691202534
 21
3.7717892295
  0
LINE
  5
28F
100
AcDbEntity
  8
0
100
AcDbLine
 62
7
  6
BYLAYER
 10
6.9691202534
 20
3.7717892295
 11
6.9686007502
 21
3.8539031075
  0
LINE
  5
290
100
AcDbEntity
  8
0
100
AcDbLine
 62
7
  6
BYLAYER
 10
6.9686007502
 20
3.8539031075
 11
6.9680511809
 21
3.9515308137
  0
LINE
  5
291
100
AcDbEntity
  8
0
100
AcDbLine
 62
7
  6
BYLAYER
 10
6.9680511809
 20
3.9515308137
 11
6.9673989854
 21
4.080219476
  0
LINE
  5
292
100
AcDbEntity
  8
0
100
AcDbLine
 62
7
  6
BYLAYER
 10
6.9673989854
 20
4.080219476
 11
6.9647654118
 21
4.5791174617
  0
LINE
  5
293
100
AcDbEntity
  8
0
100
AcDbLine
 62
7
  6
BYLAYER
 10
7.08125
 20
3.8202954009
 11
7.08125
 21
4.6681815537
  0
LINE
  5
294
100
AcDbEntity
  8
0
100
AcDbLine
 62
7
  6
BYLAYER
 10
6.9753927712
 20
3.5904879753
 11
6.9772671403
 21
3.7623675112
  0
LINE
  5
295
100
AcDbEntity
  8
0
100
AcDbLine
 62
7
  6
BYLAYER
 10
6.974660291
 20
3.5431023902
 11
6.9753927712
 21
3.5904879753
  0
LINE
  5
296
100
AcDbEntity
  8
0
100
AcDbLine
 62
7
  6
BYLAYER
 10
6.9742470351
 20
3.5222880759
 11
6.974660291
 21
3.5431023902
  0
LINE
  5
297
100
AcDbEntity
  8
0
100
AcDbLine
 62
7
  6
BYLAYER
 10
6.9739445768
 20
3.5098690575
 11
6.9742470351
 21
3.5222880759
  0
LINE
  5
298
100
AcDbEntity
  8
0
100
AcDbLine
 62
7
  6
BYLAYER
 10
6.9737394673
 20
3.5027761692
 11
6.9739445768
 21
3.5098690575
  0
LINE
  5
299
100
AcDbEntity
  8
0
100
AcDbLine
 62
7
  6
BYLAYER
 10
6.9735238941
 20
3.4964084646
 11
6.9737394673
 21
3.5027761692
  0
LINE
  5
29A
100
AcDbEntity
  8
0
100
AcDbLine
 62
7
  6
BYLAYER
 10
6.9733478827
 20
3.4919552397
 11
6.9735238941
 21
3.4964084646
  0
LINE
  5
29B
100
AcDbEntity
  8
02___PRT_ALL_AXES
100
AcDbLine
 62
7
  6
BYLAYER
 10
7.02125
 20
5.146542
 11
7.0021527097
 21
4.7168529682
  0
LINE
  5
29C
100
AcDbEntity
  8
0
100
AcDbLine
 62
7
  6
BYLAYER
 10
6.9732184166
 20
3.489054009
 11
6.9733478827
 21
3.4919552397
  0
LINE
  5
29D
100
AcDbEntity
  8
0
100
AcDbLine
 62
7
  6
BYLAYER
 10
6.9730735862
 20
3.4861321518
 11
6.9732184166
 21
3.489054009
  0
LINE
  5
29E
100
AcDbEntity
  8
0
100
AcDbLine
 62
7
  6
BYLAYER
 10
6.9729055612
 20
3.4831036041
 11
6.9730735862
 21
3.4861321518
  0
LINE
  5
29F
100
AcDbEntity
  8
0
100
AcDbLine
 62
7
  6
BYLAYER
 10
7.21325
 20
4.984042
 11
7.21325
 21
3.509042
  0
LINE
  5
2A0
100
AcDbEntity
  8
0
100
AcDbLine
 62
7
  6
BYLAYER
 10
7.28725
 20
5.296542
 11
7.28725
 21
5.146542
  0
LINE
  5
2A1
100
AcDbEntity
  8
0
100
AcDbLine
 62
7
  6
BYLAYER
 10
7.38125
 20
4.984042
 11
7.38125
 21
3.509042
  0
LINE
  5
2A2
100
AcDbEntity
  8
0
100
AcDbLine
 62
7
  6
BYLAYER
 10
3.61875
 20
11.9757830003
 11
3.61875
 21
13.3557829997
  0
LINE
  5
2A3
100
AcDbEntity
  8
0
100
AcDbLine
 62
7
  6
BYLAYER
 10
3.68375
 20
11.8657830004
 11
3.68375
 21
13.4657829996
  0
LWPOLYLINE
  5
2A4
100
AcDbEntity
  8
0
100
AcDbPolyline
 62
7
  6
BYLAYER
 90
71
 70
0
 10
6.7252597272
 20
11.711473872
 10
6.7339037443
 20
11.712958648
 10
6.7423959879
 20
11.7146852824
 10
6.7507312797
 20
11.7166435357
 10
6.7589049695
 20
11.7188234674
 10
6.7669128843
 20
11.7212153218
 10
6.7747516751
 20
11.7238085477
 10
6.7824185223
 20
11.7265922122
 10
6.7899110031
 20
11.7295557637
 10
6.7972271486
 20
11.7326890694
 10
6.8043653155
 20
11.7359823652
 10
6.8113242013
 20
11.7394262573
 10
6.8181028154
 20
11.7430117064
 10
6.8247004652
 20
11.7467300177
 10
6.8311167391
 20
11.7505728302
 10
6.837351496
 20
11.754532103
 10
6.8434051112
 20
11.7585997215
 10
6.8492785606
 20
11.7627672031
 10
6.8549732515
 20
11.767026535
 10
6.8604899363
 20
11.7713694426
 10
6.8658299293
 20
11.7757882543
 10
6.8709940356
 20
11.7802750241
 10
6.8759834337
 20
11.7848222105
 10
6.8807994661
 20
11.7894225106
 10
6.8854436584
 20
11.7940688773
 10
6.8899177054
 20
11.7987545075
 10
6.8942233742
 20
11.8034727362
 10
6.8983629546
 20
11.8082175339
 10
6.9023384254
 20
11.8129820858
 10
6.906154573
 20
11.8177624089
 10
6.9098152933
 20
11.8225538525
 10
6.9133253673
 20
11.8273533946
 10
6.9166891941
 20
11.8321580713
 10
6.9199110594
 20
11.8369652947
 10
6.9229951095
 20
11.8417728031
 10
6.9259453526
 20
11.8465786486
 10
6.9287656491
 20
11.8513811665
 10
6.9314597416
 20
11.856179017
 10
6.9340314156
 20
11.8609714898
 10
6.9364835133
 20
11.865756612
 10
6.9388196192
 20
11.8705342957
 10
6.9410407207
 20
11.8752994136
 10
6.9431487037
 20
11.8800482622
 10
6.9451456874
 20
11.8847767787
 10
6.9470339271
 20
11.8894809806
 10
6.948815882
 20
11.8941573459
 10
6.9504940257
 20
11.8988023809
 10
6.952070901
 20
11.9034127628
 10
6.9535491659
 20
11.907985512
 10
6.9549312491
 20
11.9125169024
 10
6.9562204704
 20
11.9170062161
 10
6.9574172725
 20
11.921442286
 10
6.9585252086
 20
11.9258243341
 10
6.9595407105
 20
11.9301209637
 10
6.9604637146
 20
11.9343087128
 10
6.9612950528
 20
11.9383625957
 10
6.9620360224
 20
11.9422537678
 10
6.9626921177
 20
11.9459707734
 10
6.9632666633
 20
11.9494872174
 10
6.9637702039
 20
11.9528207417
 10
6.9642106067
 20
11.9559787501
 10
6.9645950917
 20
11.958968918
 10
6.9649304839
 20
11.9618015265
 10
6.965222137
 20
11.9644799161
 10
6.9654758311
 20
11.9670163939
 10
6.9656945014
 20
11.9693986997
 10
6.9658813273
 20
11.9716162796
 10
6.9660409323
 20
11.973678378
 10
6.9661767195
 20
11.9755846524
 10
6.9662929309
 20
11.9773530473
 10
6.9664792533
 20
11.9805274447
  0
LINE
  5
2A5
100
AcDbEntity
  8
0
100
AcDbLine
 62
7
  6
BYLAYER
 10
4.79375
 20
11.403283
 11
4.99375
 21
11.403283
  0
LINE
  5
2A6
100
AcDbEntity
  8
0
100
AcDbLine
 62
7
  6
BYLAYER
 10
4.75625
 20
11.428283
 11
4.76875
 21
11.428283
  0
LINE
  5
2A7
100
AcDbEntity
  8
0
100
AcDbLine
 62
7
  6
BYLAYER
 10
5.01875
 20
11.428283
 11
5.03125
 21
11.428283
  0
LWPOLYLINE
  5
2A8
100
AcDbEntity
  8
0
100
AcDbPolyline
 62
7
  6
BYLAYER
 90
3
 70
0
 10
6.7132432063
 20
11.7098586068
 10
6.7164696477
 20
11.7102414955
 10
6.7252597272
 20
11.711473872
  0
LINE
  5
2A9
100
AcDbEntity
  8
0
100
AcDbLine
 62
7
  6
BYLAYER
 10
4.79375
 20
11.832238342
 11
4.99375
 21
11.832238342
  0
LINE
  5
2AA
100
AcDbEntity
  8
0
100
AcDbLine
 62
7
  6
BYLAYER
 10
5.91875
 20
12.053283
 11
5.9746125013
 21
12.06662675
  0
LINE
  5
2AB
100
AcDbEntity
  8
0
100
AcDbLine
 62
7
  6
BYLAYER
 10
6.3097875088
 20
12.14668925
 11
6.3656500101
 21
12.160033
  0
LINE
  5
2AC
100
AcDbEntity
  8
0
100
AcDbLine
 62
7
  6
BYLAYER
 10
4.75625
 20
11.8538585976
 11
5.03125
 21
11.8538585976
  0
LINE
  5
2AD
100
AcDbEntity
  8
0
100
AcDbLine
 62
7
  6
BYLAYER
 10
3.68375
 20
11.865783
 11
5.74875
 21
11.865783
  0
LINE
  5
2AE
100
AcDbEntity
  8
0
100
AcDbLine
 62
7
  6
BYLAYER
 10
4.79375
 20
11.8799713177
 11
4.99375
 21
11.8799713177
  0
LINE
  5
2AF
100
AcDbEntity
  8
0
100
AcDbLine
 62
7
  6
BYLAYER
 10
5.81375
 20
11.925783
 11
5.74875
 21
11.925783
  0
LINE
  5
2B0
100
AcDbEntity
  8
0
100
AcDbLine
 62
7
  6
BYLAYER
 10
3.68375
 20
11.925783
 11
3.66875
 21
11.925783
  0
LINE
  5
2B1
100
AcDbEntity
  8
0
100
AcDbLine
 62
7
  6
BYLAYER
 10
7.21325
 20
11.928283
 11
7.38125
 21
11.928283
  0
LINE
  5
2B2
100
AcDbEntity
  8
0
100
AcDbLine
 62
7
  6
BYLAYER
 10
5.91875
 20
11.965783
 11
5.85375
 21
11.965783
  0
LINE
  5
2B3
100
AcDbEntity
  8
0
100
AcDbLine
 62
7
  6
BYLAYER
 10
6.6476126601
 20
11.7100490802
 11
6.6449116182
 21
11.7103829383
  0
LINE
  5
2B4
100
AcDbEntity
  8
0
100
AcDbLine
 62
7
  6
BYLAYER
 10
6.6398288161
 20
11.7110820694
 11
6.64761266
 21
11.7100490797
  0
LINE
  5
2B5
100
AcDbEntity
  8
0
100
AcDbLine
 62
7
  6
BYLAYER
 10
4.75625
 20
11.865783
 11
4.75625
 21
11.428283
  0
LINE
  5
2B6
100
AcDbEntity
  8
0
100
AcDbLine
 62
7
  6
BYLAYER
 10
4.76875
 20
11.8756089685
 11
4.76875
 21
11.865783
  0
LINE
  5
2B7
100
AcDbEntity
  8
0
100
AcDbLine
 62
7
  6
BYLAYER
 10
4.76875
 20
11.7985753968
 11
4.76875
 21
11.428283
  0
LINE
  5
2B8
100
AcDbEntity
  8
0
100
AcDbLine
 62
7
  6
BYLAYER
 10
7.21325
 20
12.2510849045
 11
7.08125
 21
12.2395364009
  0
LINE
  5
2B9
100
AcDbEntity
  8
0
100
AcDbLine
 62
7
  6
BYLAYER
 10
5.01875
 20
11.428283
 11
5.01875
 21
11.7985753968
  0
LINE
  5
2BA
100
AcDbEntity
  8
0
100
AcDbLine
 62
7
  6
BYLAYER
 10
5.01875
 20
11.865783
 11
5.01875
 21
11.8756089685
  0
LINE
  5
2BB
100
AcDbEntity
  8
0
100
AcDbLine
 62
7
  6
BYLAYER
 10
5.03125
 20
11.865783
 11
5.03125
 21
11.428283
  0
LINE
  5
2BC
100
AcDbEntity
  8
0
100
AcDbLine
 62
7
  6
BYLAYER
 10
6.36565
 20
12.087783
 11
6.3973908104
 21
12.08517251
  0
LINE
  5
2BD
100
AcDbEntity
  8
0
100
AcDbLine
 62
7
  6
BYLAYER
 10
7.21325
 20
12.603283
 11
7.0415244203
 21
12.603283
  0
LINE
  5
2BE
100
AcDbEntity
  8
0
100
AcDbLine
 62
7
  6
BYLAYER
 10
7.21325
 20
12.728283
 11
7.0415244203
 21
12.728283
  0
LINE
  5
2BF
100
AcDbEntity
  8
0
100
AcDbLine
 62
7
  6
BYLAYER
 10
5.74875
 20
13.4657829996
 11
5.74875
 21
11.8657830004
  0
LINE
  5
2C0
100
AcDbEntity
  8
0
100
AcDbLine
 62
7
  6
BYLAYER
 10
5.81375
 20
11.925783
 11
5.81375
 21
13.405783
  0
LINE
  5
2C1
100
AcDbEntity
  8
0
100
AcDbLine
 62
7
  6
BYLAYER
 10
5.85375
 20
11.965783
 11
5.85375
 21
13.365783
  0
LINE
  5
2C2
100
AcDbEntity
  8
0
100
AcDbLine
 62
7
  6
BYLAYER
 10
5.91875
 20
13.3657829996
 11
5.91875
 21
11.9657830004
  0
LINE
  5
2C3
100
AcDbEntity
  8
0
100
AcDbLine
 62
7
  6
BYLAYER
 10
5.9746125013
 20
13.26493925
 11
5.9746125013
 21
13.2089610981
  0
LINE
  5
2C4
100
AcDbEntity
  8
0
100
AcDbLine
 62
7
  6
BYLAYER
 10
5.9746125013
 20
12.1226049019
 11
5.9746125013
 21
12.06662675
  0
LINE
  5
2C5
100
AcDbEntity
  8
0
100
AcDbLine
 62
7
  6
BYLAYER
 10
7.21325
 20
13.0804810955
 11
7.1333842488
 21
13.0874684433
  0
LINE
  5
2C6
100
AcDbEntity
  8
0
100
AcDbLine
 62
7
  6
BYLAYER
 10
5.91875
 20
13.365783
 11
5.85375
 21
13.365783
  0
LINE
  5
2C7
100
AcDbEntity
  8
0
100
AcDbLine
 62
7
  6
BYLAYER
 10
5.91875
 20
13.278283
 11
5.9746125013
 21
13.26493925
  0
LINE
  5
2C8
100
AcDbEntity
  8
0
100
AcDbLine
 62
7
  6
BYLAYER
 10
7.2807685749
 20
13.403283
 11
7.38125
 21
13.403283
  0
LINE
  5
2C9
100
AcDbEntity
  8
0
100
AcDbLine
 62
7
  6
BYLAYER
 10
5.81375
 20
13.405783
 11
5.74875
 21
13.405783
  0
LINE
  5
2CA
100
AcDbEntity
  8
0
100
AcDbLine
 62
7
  6
BYLAYER
 10
3.68375
 20
13.405783
 11
3.66875
 21
13.405783
  0
LINE
  5
2CB
100
AcDbEntity
  8
0
100
AcDbLine
 62
7
  6
BYLAYER
 10
3.68375
 20
13.465783
 11
5.74875
 21
13.465783
  0
LINE
  5
2CC
100
AcDbEntity
  8
0
100
AcDbLine
 62
7
  6
BYLAYER
 10
5.85375
 20
13.365783
 11
5.81375
 21
13.405783
  0
LWPOLYLINE
  5
2CD
100
AcDbEntity
  8
0
100
AcDbPolyline
 62
7
  6
BYLAYER
 90
63
 70
0
 10
6.3961972053
 20
11.9775098499
 10
6.3963016314
 20
11.9759036884
 10
6.3964230913
 20
11.9741685063
 10
6.3965655215
 20
11.9722839796
 10
6.3967342345
 20
11.9702224787
 10
6.3969356112
 20
11.9679566927
 10
6.3971766733
 20
11.9654658154
 10
6.3974664802
 20
11.9627222589
 10
6.3978132646
 20
11.9597199482
 10
6.3982287963
 20
11.9564342094
 10
6.3987189956
 20
11.9528952548
 10
6.3992915104
 20
11.949118341
 10
6.399952636
 20
11.945125671
 10
6.4007087256
 20
11.9409358034
 10
6.4015634619
 20
11.9365777955
 10
6.4025184013
 20
11.9320842673
 10
6.4035788029
 20
11.9274649375
 10
6.4047469908
 20
11.9227399031
 10
6.406028868
 20
11.9179123507
 10
6.4074292621
 20
11.912989635
 10
6.4089522056
 20
11.907981145
 10
6.4106011886
 20
11.9028969251
 10
6.4123805241
 20
11.8977436103
 10
6.4142936201
 20
11.8925299468
 10
6.416345134
 20
11.8872608409
 10
6.4185392189
 20
11.8819425428
 10
6.4208800608
 20
11.8765811458
 10
6.4233716569
 20
11.8711830383
 10
6.4260174514
 20
11.8657546848
 10
6.4288204889
 20
11.860302586
 10
6.4317835258
 20
11.8548335798
 10
6.4349083026
 20
11.8493560423
 10
6.4381996127
 20
11.8438729289
 10
6.4416603833
 20
11.8383907022
 10
6.4452980867
 20
11.8329091695
 10
6.4491193974
 20
11.8274306202
 10
6.4531316189
 20
11.8219575386
 10
6.4573423218
 20
11.8164932014
 10
6.4617594022
 20
11.8110416267
 10
6.4663913913
 20
11.8056072615
 10
6.4712455994
 20
11.8001966122
 10
6.476330569
 20
11.7948146049
 10
6.4816492273
 20
11.789472687
 10
6.4872059884
 20
11.7841809673
 10
6.4930034529
 20
11.7789515672
 10
6.4990442402
 20
11.7737967241
 10
6.5053306094
 20
11.7687291797
 10
6.511864237
 20
11.7637623452
 10
6.5186471706
 20
11.7589095979
 10
6.5256803319
 20
11.7541854253
 10
6.5329663086
 20
11.7496033344
 10
6.5405059137
 20
11.7451768003
 10
6.5482995239
 20
11.7409192304
 10
6.5563469013
 20
11.7368447655
 10
6.5646472536
 20
11.732968245
 10
6.5731991863
 20
11.7293052385
 10
6.5820006536
 20
11.7258720766
 10
6.5910489775
 20
11.7226858572
 10
6.6003405202
 20
11.7197645704
 10
6.6098707285
 20
11.7171265681
 10
6.6196337328
 20
11.7147887636
 10
6.6296224354
 20
11.7127680873
 10
6.6398288161
 20
11.7110820694
  0
LINE
  5
2CE
100
AcDbEntity
  8
0
100
AcDbLine
 62
7
  6
BYLAYER
 10
6.3960263961
 20
11.9804238642
 11
6.3961972053
 21
11.9775098499
  0
LINE
  5
2CF
100
AcDbEntity
  8
0
100
AcDbLine
 62
7
  6
BYLAYER
 10
6.3958919549
 20
11.9830407041
 11
6.3960263961
 21
11.9804238642
  0
LINE
  5
2D0
100
AcDbEntity
  8
0
100
AcDbLine
 62
7
  6
BYLAYER
 10
6.3957817203
 20
11.9854637255
 11
6.3958919549
 21
11.9830407041
  0
LINE
  5
2D1
100
AcDbEntity
  8
0
100
AcDbLine
 62
7
  6
BYLAYER
 10
6.3956454995
 20
11.9888979511
 11
6.3957817203
 21
11.9854637255
  0
LINE
  5
2D2
100
AcDbEntity
  8
0
100
AcDbLine
 62
7
  6
BYLAYER
 10
6.3955311705
 20
11.992241915
 11
6.3956454995
 21
11.9888979511
  0
LINE
  5
2D3
100
AcDbEntity
  8
0
100
AcDbLine
 62
7
  6
BYLAYER
 10
6.3953972129
 20
11.9967991858
 11
6.3955311705
 21
11.992241915
  0
LINE
  5
2D4
100
AcDbEntity
  8
0
100
AcDbLine
 62
7
  6
BYLAYER
 10
6.3952143308
 20
12.0042897358
 11
6.3953972129
 21
11.9967991858
  0
LINE
  5
2D5
100
AcDbEntity
  8
0
100
AcDbLine
 62
7
  6
BYLAYER
 10
6.3949517299
 20
12.0178279071
 11
6.3952143308
 21
12.0042897358
  0
LINE
  5
2D6
100
AcDbEntity
  8
0
100
AcDbLine
 62
7
  6
BYLAYER
 10
6.3945046097
 20
12.0485083788
 11
6.3949517299
 21
12.0178279071
  0
LWPOLYLINE
  5
2D7
100
AcDbEntity
  8
0
100
AcDbPolyline
 62
7
  6
BYLAYER
 90
3
 70
0
 10
6.3940855093
 20
12.0854443511
 10
6.3940903241
 20
12.0849756704
 10
6.3945046097
 20
12.0485083788
  0
LINE
  5
2D8
100
AcDbEntity
  8
0
100
AcDbLine
 62
7
  6
BYLAYER
 10
6.3097875088
 20
12.2124480734
 11
6.3097875088
 21
12.14668925
  0
LINE
  5
2D9
100
AcDbEntity
  8
0
100
AcDbLine
 62
7
  6
BYLAYER
 10
6.36565
 20
12.087783
 11
6.36565
 21
12.973566273
  0
LINE
  5
2DA
100
AcDbEntity
  8
0
100
AcDbLine
 62
7
  6
BYLAYER
 10
6.3991206867
 20
12.3075520956
 11
6.3982605352
 21
12.1888383689
  0
LINE
  5
2DB
100
AcDbEntity
  8
0
100
AcDbLine
 62
7
  6
BYLAYER
 10
6.3982605352
 20
12.1888383689
 11
6.3976930637
 21
12.1184132392
  0
LINE
  5
2DC
100
AcDbEntity
  8
0
100
AcDbLine
 62
7
  6
BYLAYER
 10
6.3976930637
 20
12.1184132392
 11
6.3973232618
 21
12.0782456714
  0
LINE
  5
2DD
100
AcDbEntity
  8
0
100
AcDbLine
 62
7
  6
BYLAYER
 10
6.3973232618
 20
12.0782456714
 11
6.3969676203
 21
12.0454539583
  0
LINE
  5
2DE
100
AcDbEntity
  8
0
100
AcDbLine
 62
7
  6
BYLAYER
 10
6.3969676203
 20
12.0454539583
 11
6.3966993971
 21
12.0254891503
  0
LINE
  5
2DF
100
AcDbEntity
  8
0
100
AcDbLine
 62
7
  6
BYLAYER
 10
6.3966993971
 20
12.0254891503
 11
6.3965074132
 21
12.0143024101
  0
LINE
  5
2E0
100
AcDbEntity
  8
0
100
AcDbLine
 62
7
  6
BYLAYER
 10
6.3965074132
 20
12.0143024101
 11
6.3964167133
 21
12.0101291772
  0
LINE
  5
2E1
100
AcDbEntity
  8
0
100
AcDbLine
 62
7
  6
BYLAYER
 10
6.3964167133
 20
12.0101291772
 11
6.3963690518
 21
12.0083174232
  0
LINE
  5
2E2
100
AcDbEntity
  8
0
100
AcDbLine
 62
7
  6
BYLAYER
 10
6.3963690518
 20
12.0083174232
 11
6.3963564206
 21
12.0079062741
  0
LINE
  5
2E3
100
AcDbEntity
  8
0
100
AcDbLine
 62
7
  6
BYLAYER
 10
5.85375
 20
11.965783
 11
5.81375
 21
11.925783
  0
LINE
  5
2E4
100
AcDbEntity
  8
03___PRT_ALL_CURVES
100
AcDbLine
 62
7
  6
BYLAYER
 10
6.68125
 20
12.8848449185
 11
6.68125
 21
11.708055
  0
LINE
  5
2E5
100
AcDbEntity
  8
0
100
AcDbLine
 62
7
  6
BYLAYER
 10
7.08125
 20
12.2395364009
 11
6.9643503929
 21
12.1744127107
  0
LINE
  5
2E6
100
AcDbEntity
  8
0
100
AcDbLine
 62
7
  6
BYLAYER
 10
6.9661411214
 20
12.0079731214
 11
6.9661441874
 21
12.0078881537
  0
LINE
  5
2E7
100
AcDbEntity
  8
0
100
AcDbLine
 62
7
  6
BYLAYER
 10
6.9661424983
 20
12.0079392601
 11
6.9661148972
 21
12.0088899936
  0
LINE
  5
2E8
100
AcDbEntity
  8
0
100
AcDbLine
 62
7
  6
BYLAYER
 10
6.9661148972
 20
12.0088899936
 11
6.9660513511
 21
12.0115030338
  0
LINE
  5
2E9
100
AcDbEntity
  8
0
100
AcDbLine
 62
7
  6
BYLAYER
 10
6.9660513511
 20
12.0115030338
 11
6.9659151911
 21
12.0184608685
  0
LINE
  5
2EA
100
AcDbEntity
  8
0
100
AcDbLine
 62
7
  6
BYLAYER
 10
6.9659151911
 20
12.0184608685
 11
6.9656636915
 21
12.0351064204
  0
LINE
  5
2EB
100
AcDbEntity
  8
0
100
AcDbLine
 62
7
  6
BYLAYER
 10
6.9656636915
 20
12.0351064204
 11
6.96533708
 21
12.0626632475
  0
LINE
  5
2EC
100
AcDbEntity
  8
0
100
AcDbLine
 62
7
  6
BYLAYER
 10
6.96533708
 20
12.0626632475
 11
6.965192842
 21
12.0766259479
  0
LINE
  5
2ED
100
AcDbEntity
  8
0
100
AcDbLine
 62
7
  6
BYLAYER
 10
6.965192842
 20
12.0766259479
 11
6.964763834
 21
12.1234292125
  0
LINE
  5
2EE
100
AcDbEntity
  8
0
100
AcDbLine
 62
7
  6
BYLAYER
 10
6.964763834
 20
12.1234292125
 11
6.9642061518
 21
12.1932241494
  0
LINE
  5
2EF
100
AcDbEntity
  8
0
100
AcDbLine
 62
7
  6
BYLAYER
 10
6.9642061518
 20
12.1932241494
 11
6.9632292838
 21
12.3289898022
  0
LINE
  5
2F0
100
AcDbEntity
  8
0
100
AcDbLine
 62
7
  6
BYLAYER
 10
6.9632292838
 20
12.3289898022
 11
6.9615114419
 21
12.5698872977
  0
LINE
  5
2F1
100
AcDbEntity
  8
0
100
AcDbLine
 62
7
  6
BYLAYER
 10
6.9680244756
 20
12.0508257877
 11
6.9692342626
 21
12.1771334693
  0
LINE
  5
2F2
100
AcDbEntity
  8
0
100
AcDbLine
 62
7
  6
BYLAYER
 10
6.9675551462
 20
12.0182274577
 11
6.9680244756
 21
12.0508257877
  0
LINE
  5
2F3
100
AcDbEntity
  8
0
100
AcDbLine
 62
7
  6
BYLAYER
 10
6.9672862953
 20
12.0043180547
 11
6.9675551462
 21
12.0182274577
  0
LINE
  5
2F4
100
AcDbEntity
  8
0
100
AcDbLine
 62
7
  6
BYLAYER
 10
6.9671140227
 20
11.9972157227
 11
6.9672862953
 21
12.0043180547
  0
LINE
  5
2F5
100
AcDbEntity
  8
0
100
AcDbLine
 62
7
  6
BYLAYER
 10
6.9669647917
 20
11.9921157195
 11
6.9671140227
 21
11.9972157227
  0
LINE
  5
2F6
100
AcDbEntity
  8
0
100
AcDbLine
 62
7
  6
BYLAYER
 10
6.9668374432
 20
11.9884374362
 11
6.9669647917
 21
11.9921157195
  0
LINE
  5
2F7
100
AcDbEntity
  8
0
100
AcDbLine
 62
7
  6
BYLAYER
 10
6.9667389324
 20
11.9859505863
 11
6.9668374432
 21
11.9884374362
  0
LINE
  5
2F8
100
AcDbEntity
  8
0
100
AcDbLine
 62
7
  6
BYLAYER
 10
6.9666227059
 20
11.9833471352
 11
6.9667389324
 21
11.9859505863
  0
LINE
  5
2F9
100
AcDbEntity
  8
0
100
AcDbLine
 62
7
  6
BYLAYER
 10
6.9664792533
 20
11.9805274447
 11
6.9666227059
 21
11.9833471352
  0
LINE
  5
2FA
100
AcDbEntity
  8
0
100
AcDbLine
 62
7
  6
BYLAYER
 10
7.08125
 20
12.2395364009
 11
7.08125
 21
12.603283
  0
LINE
  5
2FB
100
AcDbEntity
  8
0
100
AcDbLine
 62
7
  6
BYLAYER
 10
7.08125
 20
12.728283
 11
7.08125
 21
13.0357218589
  0
LINE
  5
2FC
100
AcDbEntity
  8
0
100
AcDbLine
 62
7
  6
BYLAYER
 10
7.21325
 20
11.928283
 11
7.21325
 21
13.2006675158
  0
LINE
  5
2FD
100
AcDbEntity
  8
0
100
AcDbLine
 62
7
  6
BYLAYER
 10
7.38125
 20
11.928283
 11
7.38125
 21
13.403283
  0
LINE
  5
2FE
100
AcDbEntity
  8
0
100
AcDbLine
 62
7
  6
BYLAYER
 10
15.15325
 20
4.373068
 11
15.15325
 21
4.123068
  0
LINE
  5
2FF
100
AcDbEntity
  8
0
100
AcDbLine
 62
7
  6
BYLAYER
 10
15.17825
 20
4.098068
 11
15.1901744024
 21
4.0820115799
  0
LINE
  5
300
100
AcDbEntity
  8
0
100
AcDbLine
 62
7
  6
BYLAYER
 10
15.71575
 20
3.5624771274
 11
15.71575
 21
3.548068
  0
LINE
  5
301
100
AcDbEntity
  8
0
100
AcDbLine
 62
7
  6
BYLAYER
 10
15.71575
 20
3.548068
 11
15.7284799422
 21
3.548068
  0
LINE
  5
302
100
AcDbEntity
  8
0
100
AcDbLine
 62
7
  6
BYLAYER
 10
15.4603395488
 20
4.3075635948
 11
15.17825
 21
4.098068
  0
LINE
  5
303
100
AcDbEntity
  8
0
100
AcDbLine
 62
7
  6
BYLAYER
 10
15.1901744024
 20
4.0820115799
 11
15.4588161682
 21
4.2815200932
  0
LINE
  5
304
100
AcDbEntity
  8
0
100
AcDbLine
 62
7
  6
BYLAYER
 10
15.4689597734
 20
4.098068
 11
15.211794658
 21
4.098068
  0
LINE
  5
305
100
AcDbEntity
  8
02___PRT_ALL_AXES
100
AcDbLine
 62
7
  6
BYLAYER
 10
16.47825
 20
4.9828377802
 11
16.47825
 21
5.004068
  0
LINE
  5
306
100
AcDbEntity
  8
0
100
AcDbLine
 62
7
  6
BYLAYER
 10
17.54075
 20
4.248068
 11
17.1532499955
 21
4.248067771
  0
LINE
  5
307
100
AcDbEntity
  8
0
100
AcDbLine
 62
7
  6
BYLAYER
 10
16.63475
 20
5.148068
 11
16.63475
 21
5.298068
  0
LINE
  5
308
100
AcDbEntity
  8
0
100
AcDbLine
 62
7
  6
BYLAYER
 10
15.17825
 20
4.398068
 11
15.4728076389
 21
4.398068
  0
LINE
  5
309
100
AcDbEntity
  8
0
100
AcDbLine
 62
7
  6
BYLAYER
 10
16.9166946428
 20
4.7893135365
 11
16.90075
 21
5.148068
  0
LINE
  5
30A
100
AcDbEntity
  8
0
100
AcDbLine
 62
7
  6
BYLAYER
 10
16.3602504714
 20
5.011068
 11
16.47125
 21
5.011068
  0
LINE
  5
30B
100
AcDbEntity
  8
0
100
AcDbLine
 62
7
  6
BYLAYER
 10
17.84675
 20
5.148068
 11
16.63475
 21
5.148068
  0
LINE
  5
30C
100
AcDbEntity
  8
0
100
AcDbLine
 62
7
  6
BYLAYER
 10
17.54075
 20
4.248068
 11
17.58075
 21
5.148068
  0
LINE
  5
30D
100
AcDbEntity
  8
0
100
AcDbLine
 62
7
  6
BYLAYER
 10
17.84675
 20
5.298068
 11
16.63475
 21
5.298068
  0
LINE
  5
30E
100
AcDbEntity
  8
0
100
AcDbLine
 62
7
  6
BYLAYER
 10
17.84675
 20
5.148068
 11
17.84675
 21
5.298068
  0
LINE
  5
30F
100
AcDbEntity
  8
0
100
AcDbLine
 62
7
  6
BYLAYER
 10
15.326139062
 20
11.4313246703
 11
15.3337651086
 21
11.4157844211
  0
LINE
  5
310
100
AcDbEntity
  8
0
100
AcDbLine
 62
7
  6
BYLAYER
 10
15.5539782423
 20
11.3366316897
 11
15.5617626189
 21
11.3359915641
  0
LINE
  5
311
100
AcDbEntity
  8
0
100
AcDbLine
 62
7
  6
BYLAYER
 10
15.8072700156
 20
11.3366316897
 11
15.8150543923
 21
11.3359915641
  0
LINE
  5
312
100
AcDbEntity
  8
0
100
AcDbLine
 62
7
  6
BYLAYER
 10
15.5584486916
 20
11.3411583712
 11
15.4821882249
 21
11.4965608632
  0
LWPOLYLINE
  5
313
100
AcDbEntity
  8
0
100
AcDbPolyline
 62
7
  6
BYLAYER
 90
23
 70
0
 10
17.6010603262
 20
11.4233905651
 10
17.6198918765
 20
11.4238320574
 10
17.6404948896
 20
11.4253275621
 10
17.6608579292
 20
11.4278510331
 10
17.6810213808
 20
11.4313869973
 10
17.7009957609
 20
11.4359278515
 10
17.7208070747
 20
11.4414798439
 10
17.7404752427
 20
11.448059013
 10
17.7600275014
 20
11.4556912005
 10
17.7794993733
 20
11.4644175592
 10
17.7988741613
 20
11.4742682137
 10
17.8181504987
 20
11.485288112
 10
17.8373153554
 20
11.4975246662
 10
17.8563547155
 20
11.511032674
 10
17.8752713635
 20
11.5258867226
 10
17.8940903942
 20
11.5421918064
 10
17.9127257489
 20
11.5599665595
 10
17.9311587709
 20
11.5792897555
 10
17.9492523561
 20
11.6001084991
 10
17.9669150693
 20
11.622387748
 10
17.9840830723
 20
11.6461024731
 10
18.0006949049
 20
11.6712081263
 10
18.0064134636
 20
11.6806558272
  0
LINE
  5
314
100
AcDbEntity
  8
0
100
AcDbLine
 62
7
  6
BYLAYER
 10
15.7651041817
 20
11.3271719389
 11
15.5808919829
 21
11.3271719389
  0
LINE
  5
315
100
AcDbEntity
  8
0
100
AcDbLine
 62
7
  6
BYLAYER
 10
15.7840604305
 20
11.3359915641
 11
15.8150543923
 21
11.3359915641
  0
LINE
  5
316
100
AcDbEntity
  8
0
100
AcDbLine
 62
7
  6
BYLAYER
 10
15.5539782423
 20
11.3366316897
 11
15.5614000438
 21
11.3366316897
  0
LINE
  5
317
100
AcDbEntity
  8
0
100
AcDbLine
 62
7
  6
BYLAYER
 10
15.7845841159
 20
11.3366316897
 11
15.8072700156
 21
11.3366316897
  0
LINE
  5
318
100
AcDbEntity
  8
0
100
AcDbLine
 62
7
  6
BYLAYER
 10
15.3337651086
 20
11.4157844211
 11
15.5218275453
 21
11.4157844211
  0
LINE
  5
319
100
AcDbEntity
  8
0
100
AcDbLine
 62
7
  6
BYLAYER
 10
15.8160494268
 20
11.4157844211
 11
16.6232505003
 21
11.4157844211
  0
LINE
  5
31A
100
AcDbEntity
  8
0
100
AcDbLine
 62
7
  6
BYLAYER
 10
15.326139062
 20
11.4313246703
 11
15.5142014987
 21
11.4313246703
  0
LINE
  5
31B
100
AcDbEntity
  8
0
100
AcDbLine
 62
7
  6
BYLAYER
 10
15.8162432171
 20
11.4313246703
 11
16.6156244536
 21
11.4313246703
  0
LINE
  5
31C
100
AcDbEntity
  8
03___PRT_ALL_CURVES
100
AcDbLine
 62
7
  6
BYLAYER
 10
17.6006841005
 20
11.423391029
 11
17.6010597478
 21
11.4233905652
  0
LINE
  5
31D
100
AcDbEntity
  8
0
100
AcDbLine
 62
7
  6
BYLAYER
 10
14.8199411214
 20
11.5992402356
 11
15.5067919128
 21
11.5992402356
  0
LINE
  5
31E
100
AcDbEntity
  8
0
100
AcDbLine
 62
7
  6
BYLAYER
 10
15.8676205396
 20
11.5992402356
 11
16.7219320741
 21
11.5992402356
  0
LINE
  5
31F
100
AcDbEntity
  8
0
100
AcDbLine
 62
7
  6
BYLAYER
 10
16.9026008472
 20
11.7898717816
 11
17.121541102
 21
11.84694349
  0
LINE
  5
320
100
AcDbEntity
  8
0
100
AcDbLine
 62
7
  6
BYLAYER
 10
16.7818010387
 20
11.6592402356
 11
16.7219320741
 21
11.6592402356
  0
LINE
  5
321
100
AcDbEntity
  8
0
100
AcDbLine
 62
7
  6
BYLAYER
 10
18.0708258998
 20
11.6617402356
 11
18.2255641468
 21
11.6617402356
  0
LINE
  5
322
100
AcDbEntity
  8
0
100
AcDbLine
 62
7
  6
BYLAYER
 10
16.878512443
 20
11.6992402356
 11
16.8186434784
 21
11.6992402356
  0
LINE
  5
323
100
AcDbEntity
  8
0
100
AcDbLine
 62
7
  6
BYLAYER
 10
15.5605853222
 20
11.8664603287
 11
15.5593749459
 21
11.7693989933
  0
LINE
  5
324
100
AcDbEntity
  8
0
100
AcDbLine
 62
7
  6
BYLAYER
 10
15.5541440783
 20
11.3499302508
 11
15.5539782423
 21
11.3366316897
  0
LINE
  5
325
100
AcDbEntity
  8
0
100
AcDbLine
 62
7
  6
BYLAYER
 10
15.594789454
 20
11.8395437698
 11
15.7790016528
 21
11.8395437698
  0
LINE
  5
326
100
AcDbEntity
  8
0
100
AcDbLine
 62
7
  6
BYLAYER
 10
15.5605853222
 20
11.8664603287
 11
15.8138770955
 21
11.8664603287
  0
LINE
  5
327
100
AcDbEntity
  8
0
100
AcDbLine
 62
7
  6
BYLAYER
 10
15.606344
 20
11.8769342942
 11
15.7905561988
 21
11.8769342942
  0
LINE
  5
328
100
AcDbEntity
  8
0
100
AcDbLine
 62
7
  6
BYLAYER
 10
15.8216614721
 20
11.8658202031
 11
15.8138770955
 21
11.8664603287
  0
LINE
  5
329
100
AcDbEntity
  8
0
100
AcDbLine
 62
7
  6
BYLAYER
 10
15.801505559
 20
11.7976344298
 11
15.7962793719
 21
11.3785410297
  0
LINE
  5
32A
100
AcDbEntity
  8
0
100
AcDbLine
 62
7
  6
BYLAYER
 10
15.8138770955
 20
11.8664603287
 11
15.8072700156
 21
11.3366316897
  0
LINE
  5
32B
100
AcDbEntity
  8
0
100
AcDbLine
 62
7
  6
BYLAYER
 10
15.8150543923
 20
11.3359915641
 11
15.8216614721
 21
11.8658202031
  0
LINE
  5
32C
100
AcDbEntity
  8
0
100
AcDbLine
 62
7
  6
BYLAYER
 10
15.3780288963
 20
11.5992402356
 11
15.326139062
 21
11.4313246703
  0
LINE
  5
32D
100
AcDbEntity
  8
0
100
AcDbLine
 62
7
  6
BYLAYER
 10
15.5742517027
 20
11.8175401957
 11
15.4807459951
 21
11.5149556153
  0
LINE
  5
32E
100
AcDbEntity
  8
0
100
AcDbLine
 62
7
  6
BYLAYER
 10
16.6156244536
 20
11.4313246703
 11
16.6232505003
 21
11.4157844211
  0
LINE
  5
32F
100
AcDbEntity
  8
0
100
AcDbLine
 62
7
  6
BYLAYER
 10
15.8977491521
 20
11.6967364615
 11
15.8162647685
 21
11.4330528995
  0
LINE
  5
330
100
AcDbEntity
  8
0
100
AcDbLine
 62
7
  6
BYLAYER
 10
15.7932679797
 20
11.3586352639
 11
15.7889897028
 21
11.3447907546
  0
LINE
  5
331
100
AcDbEntity
  8
0
100
AcDbLine
 62
7
  6
BYLAYER
 10
17.7976007192
 20
12.6262771297
 11
17.7620884326
 21
12.6262771297
  0
LINE
  5
332
100
AcDbEntity
  8
0
100
AcDbLine
 62
7
  6
BYLAYER
 10
17.8130724032
 20
12.7241929934
 11
17.792346723
 21
12.7241929934
  0
LINE
  5
333
100
AcDbEntity
  8
0
100
AcDbLine
 62
7
  6
BYLAYER
 10
17.2823079447
 20
12.9768906985
 11
17.3678289818
 21
12.9845317179
  0
LWPOLYLINE
  5
334
100
AcDbEntity
  8
0
100
AcDbPolyline
 62
7
  6
BYLAYER
 90
27
 70
0
 10
17.1616980888
 20
11.7472163304
 10
17.1743614286
 20
11.7222149974
 10
17.1879446392
 20
11.6974315098
 10
17.2018811889
 20
11.6739552662
 10
17.2161741922
 20
11.6517188903
 10
17.2308246936
 20
11.6306692699
 10
17.2458403737
 20
11.6107514303
 10
17.2612366192
 20
11.5919090204
 10
17.2770038197
 20
11.5741236921
 10
17.2931383609
 20
11.5573721724
 10
17.3096236103
 20
11.5416464649
 10
17.3264366267
 20
11.5269433251
 10
17.34356557
 20
11.5132493397
 10
17.360984884
 20
11.5005626827
 10
17.3786901864
 20
11.4888641021
 10
17.3966770225
 20
11.4781359038
 10
17.4149037062
 20
11.468383813
 10
17.4333291953
 20
11.4596094479
 10
17.4519209591
 20
11.4518081559
 10
17.4706295633
 20
11.4449804004
 10
17.4894485378
 20
11.4391100352
 10
17.5083667299
 20
11.4341830938
 10
17.5273453751
 20
11.4301922865
 10
17.5463530296
 20
11.4271278884
 10
17.565352836
 20
11.4249807269
 10
17.5843103322
 20
11.4237404981
 10
17.6010731222
 20
11.4233905651
  0
LINE
  5
335
100
AcDbEntity
  8
0
100
AcDbLine
 62
7
  6
BYLAYER
 10
17.1616997658
 20
11.7472128884
 11
17.1616980873
 21
11.7472163334
  0
LINE
  5
336
100
AcDbEntity
  8
0
100
AcDbLine
 62
7
  6
BYLAYER
 10
16.8404072499
 20
11.6752753499
 11
16.8410888111
 21
11.6600702341
  0
LWPOLYLINE
  5
337
100
AcDbEntity
  8
0
100
AcDbPolyline
 62
7
  6
BYLAYER
 90
63
 70
0
 10
17.5359957119
 20
13.0266956535
 10
17.5209481787
 20
13.0263730941
 10
17.5039002798
 20
13.0252275807
 10
17.4867936113
 20
13.0232408834
 10
17.4696841209
 20
13.0204046544
 10
17.4526246309
 20
13.0167145422
 10
17.4356557598
 20
13.0121668436
 10
17.4188231299
 20
13.0067616313
 10
17.4021581975
 20
13.0004999585
 10
17.385691013
 20
12.993386219
 10
17.3694609834
 20
12.9854302775
 10
17.3535540585
 20
12.9766721247
 10
17.337843101
 20
12.9670297754
 10
17.3222499876
 20
12.9564164111
 10
17.3067561879
 20
12.9447616139
 10
17.2912635161
 20
12.9319125382
 10
17.2759687366
 20
12.9179517903
 10
17.2609798562
 20
12.9029212788
 10
17.2463820362
 20
12.8868647963
 10
17.2322917327
 20
12.8698905874
 10
17.2186351178
 20
12.8518907504
 10
17.2054106926
 20
12.8328259168
 10
17.1925360177
 20
12.8125171467
 10
17.1799077592
 20
12.7906879101
 10
17.1676711431
 20
12.767460451
 10
17.1558313415
 20
12.7427240385
 10
17.1446455975
 20
12.7169484586
 10
17.1342915028
 20
12.6906093979
 10
17.1247792002
 20
12.6638831112
 10
17.116184667
 20
12.6372036241
 10
17.1083895627
 20
12.6104497694
 10
17.1013402174
 20
12.5836480045
 10
17.0949808152
 20
12.556781159
 10
17.0892664163
 20
12.5298346721
 10
17.0841638134
 20
12.5028127234
 10
17.0796436158
 20
12.4757086406
 10
17.0756844151
 20
12.4485334411
 10
17.0722676369
 20
12.4212926725
 10
17.0693783073
 20
12.3939933607
 10
17.0670041313
 20
12.3666388979
 10
17.0651363187
 20
12.3392423296
 10
17.0637678691
 20
12.3118114697
 10
17.0628942364
 20
12.2843637767
 10
17.0625123007
 20
12.2569145158
 10
17.0626204974
 20
12.2294773661
 10
17.0632186974
 20
12.2020720313
 10
17.0643090902
 20
12.1746951429
 10
17.0658960956
 20
12.1473534183
 10
17.0679878221
 20
12.1200372351
 10
17.0705956276
 20
12.0927412317
 10
17.0737341155
 20
12.0654635006
 10
17.0774229724
 20
12.0381932931
 10
17.0816805345
 20
12.010958182
 10
17.0865305699
 20
11.9837693193
 10
17.0919952652
 20
11.9566654308
 10
17.0981010839
 20
11.9296769907
 10
17.1048789059
 20
11.902831773
 10
17.1123652855
 20
11.8761544673
 10
17.1206014853
 20
11.8496741186
 10
17.1296371269
 20
11.8234155595
 10
17.1395309525
 20
11.7974032756
 10
17.1503589106
 20
11.7716480621
 10
17.1616997673
 20
11.7472128854
  0
LINE
  5
338
100
AcDbEntity
  8
03___PRT_ALL_CURVES
100
AcDbLine
 62
7
  6
BYLAYER
 10
17.5347693618
 20
13.0266892871
 11
17.5338741829
 21
13.0266765342
  0
LINE
  5
339
100
AcDbEntity
  8
03___PRT_ALL_CURVES
100
AcDbLine
 62
7
  6
BYLAYER
 10
17.5359834594
 20
13.0266956534
 11
17.5347693618
 21
13.0266892871
  0
LINE
  5
33A
100
AcDbEntity
  8
0
100
AcDbLine
 62
7
  6
BYLAYER
 10
17.6122581721
 20
13.0182402356
 11
17.6305587446
 21
13.0182402356
  0
LINE
  5
33B
100
AcDbEntity
  8
0
100
AcDbLine
 62
7
  6
BYLAYER
 10
16.878512443
 20
13.0992402356
 11
16.8186434784
 21
13.0992402356
  0
LINE
  5
33C
100
AcDbEntity
  8
0
100
AcDbLine
 62
7
  6
BYLAYER
 10
16.6675142879
 20
11.5992402356
 11
16.6156244536
 21
11.4313246703
  0
LINE
  5
33D
100
AcDbEntity
  8
0
100
AcDbLine
 62
7
  6
BYLAYER
 10
16.6232505003
 20
11.4157844211
 11
16.6799426348
 21
11.5992402356
  0
LINE
  5
33E
100
AcDbEntity
  8
0
100
AcDbLine
 62
7
  6
BYLAYER
 10
18.0708258998
 20
13.1367402356
 11
18.2255641468
 21
13.1367402356
  0
LINE
  5
33F
100
AcDbEntity
  8
0
100
AcDbLine
 62
7
  6
BYLAYER
 10
16.7818010387
 20
13.1392402356
 11
16.7219320741
 21
13.1392402356
  0
LINE
  5
340
100
AcDbEntity
  8
0
100
AcDbLine
 62
7
  6
BYLAYER
 10
14.8199411214
 20
13.1992402356
 11
16.7219320741
 21
13.1992402356
  0
LINE
  5
341
100
AcDbEntity
  8
0
100
AcDbLine
 62
7
  6
BYLAYER
 10
16.9026008472
 20
13.0086086896
 11
17.2016158188
 21
12.9306637028
  0
LINE
  5
342
100
AcDbEntity
  8
0
100
AcDbLine
 62
7
  6
BYLAYER
 10
16.8756175508
 20
11.8165645939
 11
16.990417419
 21
12.1880571033
  0
LINE
  5
343
100
AcDbEntity
  8
0
100
AcDbLine
 62
7
  6
BYLAYER
 10
16.9162068258
 20
13.4312065211
 11
16.9619631058
 21
13.3379650259
  0
LWPOLYLINE
  5
344
100
AcDbEntity
  8
0
100
AcDbPolyline
 62
7
  6
BYLAYER
 90
13
 70
0
 10
17.7313086035
 20
12.9685733176
 10
17.7174039361
 20
12.9770596993
 10
17.7016506016
 20
12.9857319431
 10
17.6855587236
 20
12.9936171673
 10
17.6691888879
 20
13.0006837918
 10
17.652604338
 20
13.0069076942
 10
17.6358384417
 20
13.0122816969
 10
17.6189319648
 20
13.0168013189
 10
17.601939947
 20
13.0204649176
 10
17.5849123463
 20
13.023276438
 10
17.5679125621
 20
13.0252421113
 10
17.5510114463
 20
13.0263739381
 10
17.5359861466
 20
13.0266956535
  0
LINE
  5
345
100
AcDbEntity
  8
0
100
AcDbLine
 62
7
  6
BYLAYER
 10
17.7354729871
 20
12.970866431
 11
17.8581047841
 21
12.8945471561
  0
LINE
  5
346
100
AcDbEntity
  8
03___PRT_ALL_CURVES
100
AcDbLine
 62
7
  6
BYLAYER
 10
17.0351601669
 20
13.4862076774
 11
17.035354663
 21
13.4858241375
  0
LINE
  5
347
100
AcDbEntity
  8
02___PRT_ALL_AXES
100
AcDbLine
 62
7
  6
BYLAYER
 10
17.2950489727
 20
12.8397128516
 11
17.2941015715
 21
12.8416434523
  0
LINE
  5
348
100
AcDbEntity
  8
0
100
AcDbLine
 62
7
  6
BYLAYER
 10
17.6758328985
 20
11.9949965409
 11
17.6712714549
 21
12.0044841068
  0
LWPOLYLINE
  5
349
100
AcDbEntity
  8
0
100
AcDbPolyline
 62
7
  6
BYLAYER
 90
28
 70
0
 10
17.6712706808
 20
12.0044837969
 10
17.6702065272
 20
12.0068436311
 10
17.6684461442
 20
12.0109375171
 10
17.6665374517
 20
12.0156414108
 10
17.6645012818
 20
12.02096585
 10
17.6623584125
 20
12.0269198951
 10
17.6601294949
 20
12.0335113409
 10
17.6578352939
 20
12.0407460009
 10
17.6554974532
 20
12.0486248689
 10
17.6531365639
 20
12.0571501499
 10
17.6507767128
 20
12.0663080848
 10
17.6484404011
 20
12.0760852882
 10
17.6461505711
 20
12.0864603475
 10
17.6439291031
 20
12.0974089159
 10
17.6417968265
 20
12.1089033905
 10
17.6397734406
 20
12.1209129215
 10
17.6378776366
 20
12.1334019946
 10
17.6361265642
 20
12.1463330553
 10
17.63453623
 20
12.15966295
 10
17.6331208975
 20
12.1733461158
 10
17.631892961
 20
12.1873356166
 10
17.6308630603
 20
12.2015816954
 10
17.6300398378
 20
12.2160344932
 10
17.6294301234
 20
12.230641058
 10
17.6290386309
 20
12.245352596
 10
17.6288683487
 20
12.2601177529
 10
17.6289204292
 20
12.2748873816
 10
17.6291456889
 20
12.2876801703
  0
LINE
  5
34A
100
AcDbEntity
  8
02___PRT_ALL_AXES
100
AcDbLine
 62
7
  6
BYLAYER
 10
17.3861889827
 20
13.130835743
 11
17.4517248053
 21
13.0164733867
  0
LINE
  5
34B
100
AcDbEntity
  8
02___PRT_ALL_AXES
100
AcDbLine
 62
7
  6
BYLAYER
 10
17.4126042598
 20
12.8839012977
 11
17.4063180281
 21
12.8967112909
  0
LINE
  5
34C
100
AcDbEntity
  8
0
100
AcDbLine
 62
7
  6
BYLAYER
 10
17.838467238
 20
11.8917119882
 11
17.858084495
 21
11.9039206882
  0
LINE
  5
34D
100
AcDbEntity
  8
0
100
AcDbLine
 62
7
  6
BYLAYER
 10
18.0639983229
 20
13.1472189078
 11
18.0529394836
 21
13.1710061701
  0
LINE
  5
34E
100
AcDbEntity
  8
0
100
AcDbLine
 62
7
  6
BYLAYER
 10
18.0684935443
 20
13.1366322133
 11
18.0639983229
 21
13.1472189078
  0
LINE
  5
34F
100
AcDbEntity
  8
02___PRT_ALL_AXES
100
AcDbLine
 62
7
  6
BYLAYER
 10
17.9542783448
 20
13.4096429721
 11
18.0539726597
 21
13.1685071736
  0
LINE
  5
350
100
AcDbEntity
  8
0
100
AcDbLine
 62
7
  6
BYLAYER
 10
18.0042575898
 20
13.9651442843
 11
18.0500138698
 21
13.8719027891
  0
ARC
  5
351
100
AcDbEntity
  8
0
100
AcDbCircle
 62
7
  6
BYLAYER
 10
3.66875
 20
4.936542
 40
0.05
100
AcDbArc
 50
90.0
 51
180.0
  0
ARC
  5
352
100
AcDbEntity
  8
0
100
AcDbCircle
 62
7
  6
BYLAYER
 10
4.79375
 20
4.371542
 40
0.025
100
AcDbArc
 50
90.0
 51
180.0
  0
ARC
  5
353
100
AcDbEntity
  8
0
100
AcDbCircle
 62
7
  6
BYLAYER
 10
4.99375
 20
4.371542
 40
0.025
100
AcDbArc
 50
0.0
 51
90.0
  0
ARC
  5
354
100
AcDbEntity
  8
0
100
AcDbCircle
 62
7
  6
BYLAYER
 10
4.79375
 20
4.121542
 40
0.025
100
AcDbArc
 50
180.0
 51
270.0
  0
ARC
  5
355
100
AcDbEntity
  8
0
100
AcDbCircle
 62
7
  6
BYLAYER
 10
4.99375
 20
4.121542
 40
0.025
100
AcDbArc
 50
270.0
 51
360.0
  0
ARC
  5
356
100
AcDbEntity
  8
0
100
AcDbCircle
 62
7
  6
BYLAYER
 10
-4.6146835328
 20
-27.0016654482
 40
41.5815785865
100
AcDbArc
 50
74.958120028
 51
75.2463735154
  0
ARC
  5
357
100
AcDbEntity
  8
0
100
AcDbCircle
 62
7
  6
BYLAYER
 10
-3.4589366972
 20
47.9861759366
 40
37.0835216483
100
AcDbArc
 50
284.7372385103
 51
285.2733830467
  0
ARC
  5
358
100
AcDbEntity
  8
0
100
AcDbCircle
 62
7
  6
BYLAYER
 10
3.66875
 20
11.975783
 40
0.05
100
AcDbArc
 50
180.0
 51
270.0
  0
ARC
  5
359
100
AcDbEntity
  8
0
100
AcDbCircle
 62
7
  6
BYLAYER
 10
4.99375
 20
11.428283
 40
0.025
100
AcDbArc
 50
270.0
 51
360.0
  0
ARC
  5
35A
100
AcDbEntity
  8
0
100
AcDbCircle
 62
7
  6
BYLAYER
 10
4.79375
 20
11.428283
 40
0.025
100
AcDbArc
 50
180.0
 51
270.0
  0
ARC
  5
35B
100
AcDbEntity
  8
0
100
AcDbCircle
 62
7
  6
BYLAYER
 10
3.66875
 20
13.355783
 40
0.05
100
AcDbArc
 50
90.0
 51
180.0
  0
ARC
  5
35C
100
AcDbEntity
  8
0
100
AcDbCircle
 62
7
  6
BYLAYER
 10
6.6811096442
 20
11.9944114945
 40
0.2863615419
100
AcDbArc
 50
276.4429168993
 51
280.1306483726
  0
ARC
  5
35D
100
AcDbEntity
  8
0
100
AcDbCircle
 62
7
  6
BYLAYER
 10
6.6812968143
 20
11.9935524287
 40
0.2854974325
100
AcDbArc
 50
263.2242266473
 51
269.9906049614
  0
ARC
  5
35E
100
AcDbEntity
  8
0
100
AcDbCircle
 62
7
  6
BYLAYER
 10
6.6812050507
 20
11.9935150205
 40
0.285460024
100
AcDbArc
 50
270.0090219512
 51
276.4440795096
  0
ARC
  5
35F
100
AcDbEntity
  8
0
100
AcDbCircle
 62
7
  6
BYLAYER
 10
6.68125
 20
12.665783
 40
0.0625
100
AcDbArc
 50
314.876583333
 51
225.123416667
  0
CIRCLE
  5
360
100
AcDbEntity
  8
02___PRT_ALL_AXES
100
AcDbCircle
 62
7
  6
BYLAYER
 10
7.10625
 20
12.665783
 40
0.02458
  0
CIRCLE
  5
361
100
AcDbEntity
  8
0
100
AcDbCircle
 62
7
  6
BYLAYER
 10
6.68125
 20
12.665783
 40
0.02458
  0
CIRCLE
  5
362
100
AcDbEntity
  8
02___PRT_ALL_AXES
100
AcDbCircle
 62
7
  6
BYLAYER
 10
7.10625
 20
12.665783
 40
0.0233659585
  0
CIRCLE
  5
363
100
AcDbEntity
  8
0
100
AcDbCircle
 62
7
  6
BYLAYER
 10
6.68125
 20
12.665783
 40
0.0233659585
  0
CIRCLE
  5
364
100
AcDbEntity
  8
02___PRT_ALL_AXES
100
AcDbCircle
 62
7
  6
BYLAYER
 10
6.4994753696
 20
13.0519402221
 40
0.044
  0
CIRCLE
  5
365
100
AcDbEntity
  8
02___PRT_ALL_AXES
100
AcDbCircle
 62
7
  6
BYLAYER
 10
6.2424072221
 20
13.3090083696
 40
0.044
  0
CIRCLE
  5
366
100
AcDbEntity
  8
02___PRT_ALL_AXES
100
AcDbCircle
 62
7
  6
BYLAYER
 10
6.2424072221
 20
13.6725576304
 40
0.044
  0
CIRCLE
  5
367
100
AcDbEntity
  8
02___PRT_ALL_AXES
100
AcDbCircle
 62
7
  6
BYLAYER
 10
6.4994753696
 20
13.9296257779
 40
0.044
  0
CIRCLE
  5
368
100
AcDbEntity
  8
02___PRT_ALL_AXES
100
AcDbCircle
 62
7
  6
BYLAYER
 10
7.1200927779
 20
13.3090083696
 40
0.044
  0
CIRCLE
  5
369
100
AcDbEntity
  8
02___PRT_ALL_AXES
100
AcDbCircle
 62
7
  6
BYLAYER
 10
6.8630246304
 20
13.0519402221
 40
0.044
  0
CIRCLE
  5
36A
100
AcDbEntity
  8
0
100
AcDbCircle
 62
7
  6
BYLAYER
 10
6.68125
 20
13.490783
 40
0.606
  0
CIRCLE
  5
36B
100
AcDbEntity
  8
03___PRT_ALL_CURVES
100
AcDbCircle
 62
7
  6
BYLAYER
 10
6.68125
 20
13.490783
 40
0.475
  0
CIRCLE
  5
36C
100
AcDbEntity
  8
0
100
AcDbCircle
 62
7
  6
BYLAYER
 10
6.68125
 20
13.490783
 40
0.3
  0
CIRCLE
  5
36D
100
AcDbEntity
  8
0
100
AcDbCircle
 62
7
  6
BYLAYER
 10
6.68125
 20
13.490783
 40
0.2533333333
  0
CIRCLE
  5
36E
100
AcDbEntity
  8
02___PRT_ALL_AXES
100
AcDbCircle
 62
7
  6
BYLAYER
 10
6.8630246304
 20
13.9296257779
 40
0.044
  0
CIRCLE
  5
36F
100
AcDbEntity
  8
02___PRT_ALL_AXES
100
AcDbCircle
 62
7
  6
BYLAYER
 10
7.1200927779
 20
13.6725576304
 40
0.044
  0
CIRCLE
  5
370
100
AcDbEntity
  8
02___PRT_ALL_AXES
100
AcDbCircle
 62
7
  6
BYLAYER
 10
15.8729707746
 20
4.0232414835
 40
0.044
  0
ARC
  5
371
100
AcDbEntity
  8
0
100
AcDbCircle
 62
7
  6
BYLAYER
 10
15.17825
 20
4.123068
 40
0.025
100
AcDbArc
 50
180.0
 51
270.0
  0
CIRCLE
  5
372
100
AcDbEntity
  8
02___PRT_ALL_AXES
100
AcDbCircle
 62
7
  6
BYLAYER
 10
15.8729707746
 20
4.4728945165
 40
0.044
  0
ARC
  5
373
100
AcDbEntity
  8
0
100
AcDbCircle
 62
7
  6
BYLAYER
 10
15.17825
 20
4.373068
 40
0.025
100
AcDbArc
 50
90.0
 51
180.0
  0
ARC
  5
374
100
AcDbEntity
  8
0
100
AcDbCircle
 62
7
  6
BYLAYER
 10
16.499386
 20
4.2480680644
 40
1.041364
100
AcDbArc
 50
180.0000035429
 51
359.9999964571
  0
ARC
  5
375
100
AcDbEntity
  8
03___PRT_ALL_CURVES
100
AcDbCircle
 62
7
  6
BYLAYER
 10
16.499386
 20
4.248068
 40
1.041364
100
AcDbArc
 50
180.0
 51
360.0
  0
ARC
  5
376
100
AcDbEntity
  8
0
100
AcDbCircle
 62
7
  6
BYLAYER
 10
16.41575
 20
4.248068
 40
0.8
100
AcDbArc
 50
51.5671626726
 51
105.0024761456
  0
ARC
  5
377
100
AcDbEntity
  8
0
100
AcDbCircle
 62
7
  6
BYLAYER
 10
16.2305498736
 20
4.2480678591
 40
0.7725278736
100
AcDbArc
 50
80.5889799245
 51
179.9999895533
  0
ARC
  5
378
100
AcDbEntity
  8
03___PRT_ALL_CURVES
100
AcDbCircle
 62
7
  6
BYLAYER
 10
16.2305497542
 20
4.248068
 40
0.7725277542
100
AcDbArc
 50
80.5889658654
 51
180.0
  0
ARC
  5
379
100
AcDbEntity
  8
0
100
AcDbCircle
 62
7
  6
BYLAYER
 10
16.41575
 20
4.248068
 40
0.74
100
AcDbArc
 50
47.3684138591
 51
85.1535753552
  0
CIRCLE
  5
37A
100
AcDbEntity
  8
0
100
AcDbCircle
 62
7
  6
BYLAYER
 10
16.41575
 20
4.248068
 40
0.7375
  0
ARC
  5
37B
100
AcDbEntity
  8
03___PRT_ALL_CURVES
100
AcDbCircle
 62
7
  6
BYLAYER
 10
16.41575
 20
4.248068
 40
0.5875
100
AcDbArc
 50
198.2094536332
 51
206.7899926435
  0
ARC
  5
37C
100
AcDbEntity
  8
03___PRT_ALL_CURVES
100
AcDbCircle
 62
7
  6
BYLAYER
 10
16.41575
 20
4.248068
 40
0.5875
100
AcDbArc
 50
243.209587821
 51
251.7898284375
  0
ARC
  5
37D
100
AcDbEntity
  8
03___PRT_ALL_CURVES
100
AcDbCircle
 62
7
  6
BYLAYER
 10
16.41575
 20
4.248068
 40
0.5875
100
AcDbArc
 50
288.2099903948
 51
296.7899604555
  0
ARC
  5
37E
100
AcDbEntity
  8
03___PRT_ALL_CURVES
100
AcDbCircle
 62
7
  6
BYLAYER
 10
16.41575
 20
4.248068
 40
0.5875
100
AcDbArc
 50
333.209719986
 51
341.790059071
  0
ARC
  5
37F
100
AcDbEntity
  8
03___PRT_ALL_CURVES
100
AcDbCircle
 62
7
  6
BYLAYER
 10
16.41575
 20
4.248068
 40
0.5875
100
AcDbArc
 50
18.2094536332
 51
26.7899926435
  0
ARC
  5
380
100
AcDbEntity
  8
03___PRT_ALL_CURVES
100
AcDbCircle
 62
7
  6
BYLAYER
 10
16.41575
 20
4.248068
 40
0.5875
100
AcDbArc
 50
63.209587821
 51
71.7898284375
  0
ARC
  5
381
100
AcDbEntity
  8
03___PRT_ALL_CURVES
100
AcDbCircle
 62
7
  6
BYLAYER
 10
16.41575
 20
4.248068
 40
0.5875
100
AcDbArc
 50
108.2099903948
 51
116.7899604555
  0
ARC
  5
382
100
AcDbEntity
  8
03___PRT_ALL_CURVES
100
AcDbCircle
 62
7
  6
BYLAYER
 10
16.41575
 20
4.248068
 40
0.5875
100
AcDbArc
 50
153.209719986
 51
161.790059071
  0
ARC
  5
383
100
AcDbEntity
  8
0
100
AcDbCircle
 62
7
  6
BYLAYER
 10
16.4434919002
 20
4.2555052282
 40
0.5444394945
100
AcDbArc
 50
287.8798040195
 51
291.5507980362
  0
ARC
  5
384
100
AcDbEntity
  8
0
100
AcDbCircle
 62
7
  6
BYLAYER
 10
16.4573041814
 20
4.2411980504
 40
0.5240321424
100
AcDbArc
 50
332.4582198344
 51
340.5380241146
  0
CIRCLE
  5
385
100
AcDbEntity
  8
0
100
AcDbCircle
 62
7
  6
BYLAYER
 10
16.41575
 20
4.248068
 40
0.3115
  0
CIRCLE
  5
386
100
AcDbEntity
  8
02___PRT_ALL_AXES
100
AcDbCircle
 62
7
  6
BYLAYER
 10
16.1909234835
 20
3.7052887746
 40
0.044
  0
CIRCLE
  5
387
100
AcDbEntity
  8
02___PRT_ALL_AXES
100
AcDbCircle
 62
7
  6
BYLAYER
 10
16.6405765165
 20
3.7052887746
 40
0.044
  0
CIRCLE
  5
388
100
AcDbEntity
  8
02___PRT_ALL_AXES
100
AcDbCircle
 62
7
  6
BYLAYER
 10
16.9585292254
 20
4.0232414835
 40
0.044
  0
CIRCLE
  5
389
100
AcDbEntity
  8
02___PRT_ALL_AXES
100
AcDbCircle
 62
7
  6
BYLAYER
 10
16.6405765165
 20
4.7908472254
 40
0.044
  0
CIRCLE
  5
38A
100
AcDbEntity
  8
02___PRT_ALL_AXES
100
AcDbCircle
 62
7
  6
BYLAYER
 10
16.1909234835
 20
4.7908472254
 40
0.044
  0
CIRCLE
  5
38B
100
AcDbEntity
  8
02___PRT_ALL_AXES
100
AcDbCircle
 62
7
  6
BYLAYER
 10
16.9585292254
 20
4.4728945165
 40
0.044
  0
ARC
  5
38C
100
AcDbEntity
  8
0
100
AcDbCircle
 62
7
  6
BYLAYER
 10
16.47125
 20
5.004068
 40
0.007
100
AcDbArc
 50
0.0
 51
90.0
  0
ARC
  5
38D
100
AcDbEntity
  8
0
100
AcDbCircle
 62
7
  6
BYLAYER
 10
16.36025
 20
5.004068
 40
0.007
100
AcDbArc
 50
89.9960740197
 51
118.8691584676
  0
ARC
  5
38E
100
AcDbEntity
  8
0
100
AcDbCircle
 62
7
  6
BYLAYER
 10
5.9671150097
 20
63.8855674195
 40
53.1994030318
100
AcDbArc
 50
281.832387447
 51
282.09605148
  0
ARC
  5
38F
100
AcDbEntity
  8
0
100
AcDbCircle
 62
7
  6
BYLAYER
 10
6.4843160077
 20
61.0116282612
 40
49.941145601
100
AcDbArc
 50
281.8284344606
 51
282.2160680801
  0
ARC
  5
390
100
AcDbEntity
  8
0
100
AcDbCircle
 62
7
  6
BYLAYER
 10
18.8751440543
 20
12.3992417469
 40
1.0918864367
100
AcDbArc
 50
177.6284998402
 51
182.4409884649
  0
ARC
  5
391
100
AcDbEntity
  8
0
100
AcDbCircle
 62
7
  6
BYLAYER
 10
16.7291241662
 20
11.8651795247
 40
0.2211150017
100
AcDbArc
 50
310.6242660378
 51
311.2995302464
  0
ARC
  5
392
100
AcDbEntity
  8
0
100
AcDbCircle
 62
7
  6
BYLAYER
 10
17.9064016093
 20
13.1076276214
 40
0.1596356254
100
AcDbArc
 50
10.3857629428
 51
22.4183085718
  0
ARC
  5
393
100
AcDbEntity
  8
0
100
AcDbCircle
 62
7
  6
BYLAYER
 10
17.6304913644
 20
12.9228644189
 40
0.095375823
100
AcDbArc
 50
78.1888030895
 51
89.9595221836
  0
ARC
  5
394
100
AcDbEntity
  8
0
100
AcDbCircle
 62
7
  6
BYLAYER
 10
17.6305695164
 20
12.9237995975
 40
0.0944406212
100
AcDbArc
 50
90.0065350437
 51
98.3213285061
  0
ARC
  5
395
100
AcDbEntity
  8
0
100
AcDbCircle
 62
7
  6
BYLAYER
 10
15.5810328966
 20
11.3522699369
 40
0.0251696883
100
AcDbArc
 50
206.1974655589
 51
223.4356573002
  0
ARC
  5
396
100
AcDbEntity
  8
0
100
AcDbCircle
 62
7
  6
BYLAYER
 10
15.5046503803
 20
11.5075758164
 40
0.025017747
100
AcDbArc
 50
162.8318913465
 51
206.1057922646
  0
ARC
  5
397
100
AcDbEntity
  8
0
100
AcDbCircle
 62
7
  6
BYLAYER
 10
15.5808964326
 20
11.3521823016
 40
0.0250103609
100
AcDbArc
 50
223.5048151499
 51
269.9910059768
  0
ARC
  5
398
100
AcDbEntity
  8
0
100
AcDbCircle
 62
7
  6
BYLAYER
 10
15.7651040929
 20
11.352172179
 40
0.0250002316
100
AcDbArc
 50
270.0002034834
 51
342.8242883588
  0
SPLINE
  5
399
100
AcDbEntity
  8
0
100
AcDbSpline
 62
7
  6
BYLAYER
 70
0
 71
3
 72
11
 73
7
 74
0
 42
0.0000001
 43
0.0000001
 44
0.0000000001
 40
0.0
 40
0.0
 40
0.0
 40
0.0
 40
0.2962739007
 40
0.5621961403
 40
0.7969219247
 40
1.0
 40
1.0
 40
1.0
 40
1.0
 10
6.3993037219
 20
4.7163071821
 30
0.0
 10
6.3994575352
 20
4.7238735183
 30
0.0
 10
6.3999077472
 20
4.7382287945
 30
0.0
 10
6.4011646391
 20
4.7585505829
 30
0.0
 10
6.4029994616
 20
4.7764377023
 30
0.0
 10
6.4047479372
 20
4.7874933657
 30
0.0
 10
6.4057699542
 20
4.7925790331
 30
0.0
  0
SPLINE
  5
39A
100
AcDbEntity
  8
0
100
AcDbSpline
 62
7
  6
BYLAYER
 70
0
 71
3
 72
29
 73
25
 74
0
 42
0.0000001
 43
0.0000001
 44
0.0000000001
 40
0.0
 40
0.0
 40
0.0
 40
0.0
 40
0.0003037497
 40
0.0012150161
 40
0.0027338026
 40
0.0048594803
 40
0.0075898825
 40
0.0109226141
 40
0.0193854916
 40
0.0302279372
 40
0.04341897
 40
0.0589212565
 40
0.0766961119
 40
0.0966948718
 40
0.1188644863
 40
0.1694887695
 40
0.22805948
 40
0.2940027458
 40
0.3666857968
 40
0.4454189914
 40
0.5294589101
 40
0.6180143937
 40
0.8052571438
 40
1.0
 40
1.0
 40
1.0
 40
1.0
 10
6.3473611536
 20
5.0090420618
 30
0.0
 10
6.3473575799
 20
5.0090368191
 30
0.0
 10
6.347372034
 20
5.0090900092
 30
0.0
 10
6.3473695686
 20
5.0091194325
 30
0.0
 10
6.3473889699
 20
5.009229105
 30
0.0
 10
6.347405071
 20
5.00935411
 30
0.0
 10
6.347430095
 20
5.0095261139
 30
0.0
 10
6.3474719924
 20
5.0098253097
 30
0.0
 10
6.3475378137
 20
5.0102944502
 30
0.0
 10
6.3476306429
 20
5.0109665005
 30
0.0
 10
6.3477420171
 20
5.0117849392
 30
0.0
 10
6.347870284
 20
5.0127470377
 30
0.0
 10
6.3480141449
 20
5.0138505763
 30
0.0
 10
6.3481717397
 20
5.0150927481
 30
0.0
 10
6.3484082886
 20
5.0170165754
 30
0.0
 10
6.3487252408
 20
5.0197422737
 30
0.0
 10
6.3491113888
 20
5.0233803025
 30
0.0
 10
6.3494991704
 20
5.0274812829
 30
0.0
 10
6.3498684252
 20
5.0320067202
 30
0.0
 10
6.3501990004
 20
5.0369141265
 30
0.0
 10
6.3504716991
 20
5.0421571737
 30
0.0
 10
6.3507397648
 20
5.0496692079
 30
0.0
 10
6.3508331815
 20
5.0594998536
 30
0.0
 10
6.3506193652
 20
5.0674782475
 30
0.0
 10
6.3504355589
 20
5.071542
 30
0.0
  0
LINE
  5
39B
100
AcDbEntity
  8
0
100
AcDbLine
 62
7
  6
BYLAYER
 10
7.21325
 20
4.6565032913
 11
7.08125
 21
4.6681815537
  0
LINE
  5
39C
100
AcDbEntity
  8
0
100
AcDbLine
 62
7
  6
BYLAYER
 10
7.0415244203
 20
4.690542
 11
7.08125
 21
4.6681815537
  0
LINE
  5
39D
100
AcDbEntity
  8
0
100
AcDbLine
 62
7
  6
BYLAYER
 10
6.3504355589
 20
5.071542
 11
6.347043851
 21
5.146542
  0
SPLINE
  5
39E
100
AcDbEntity
  8
0
100
AcDbSpline
 62
7
  6
BYLAYER
 70
0
 71
3
 72
11
 73
7
 74
0
 42
0.0000001
 43
0.0000001
 44
0.0000000001
 40
0.0
 40
0.0
 40
0.0
 40
0.0
 40
0.2500090104
 40
0.5000000033
 40
0.7499909943
 40
1.0
 40
1.0
 40
1.0
 40
1.0
 10
7.0415244203
 20
12.728283
 30
0.0
 10
7.0440776946
 20
12.7180786094
 30
0.0
 10
7.0480295957
 20
12.6973566812
 30
0.0
 10
7.0500579691
 20
12.6657829997
 30
0.0
 10
7.0480295957
 20
12.6342093184
 30
0.0
 10
7.0440776945
 20
12.6134873905
 30
0.0
 10
7.0415244203
 20
12.603283
 30
0.0
  0
SPLINE
  5
39F
100
AcDbEntity
  8
0
100
AcDbSpline
 62
7
  6
BYLAYER
 70
0
 71
3
 72
11
 73
7
 74
0
 42
0.0000001
 43
0.0000001
 44
0.0000000001
 40
0.0
 40
0.0
 40
0.0
 40
0.0
 40
0.2567254871
 40
0.5108016579
 40
0.7594152023
 40
1.0
 40
1.0
 40
1.0
 40
1.0
 10
6.4283193596
 20
12.665783
 30
0.0
 10
6.4316440029
 20
12.6876644758
 30
0.0
 10
6.4388238958
 20
12.7311181595
 30
0.0
 10
6.4512634619
 20
12.7954044526
 30
0.0
 10
6.4653140633
 20
12.8579337738
 30
0.0
 10
6.4759565319
 20
12.8987551493
 30
0.0
 10
6.48159448
 20
12.9187152767
 30
0.0
  0
SPLINE
  5
3A0
100
AcDbEntity
  8
0
100
AcDbSpline
 62
7
  6
BYLAYER
 70
0
 71
3
 72
9
 73
5
 74
0
 42
0.0000001
 43
0.0000001
 44
0.0000000001
 40
0.0
 40
0.0
 40
0.0
 40
0.0
 40
0.5104519121
 40
1.0
 40
1.0
 40
1.0
 40
1.0
 10
6.5107403341
 20
13.0094843784
 30
0.0
 10
6.5148377405
 20
13.0206602857
 30
0.0
 10
6.5232509578
 20
13.0424155442
 30
0.0
 10
6.5325915152
 20
13.0637937655
 30
0.0
 10
6.5374416857
 20
13.0741280905
 30
0.0
  0
SPLINE
  5
3A1
100
AcDbEntity
  8
0
100
AcDbSpline
 62
7
  6
BYLAYER
 70
0
 71
3
 72
11
 73
7
 74
0
 42
0.0000001
 43
0.0000001
 44
0.0000000001
 40
0.0
 40
0.0
 40
0.0
 40
0.0
 40
0.2249096887
 40
0.471064899
 40
0.7317646167
 40
1.0
 40
1.0
 40
1.0
 40
1.0
 10
6.3991207192
 20
12.3075521326
 30
0.0
 10
6.3993099151
 20
12.3345181246
 30
0.0
 10
6.4007771054
 20
12.3909939842
 30
0.0
 10
6.4061737905
 20
12.4785841258
 30
0.0
 10
6.4151417469
 20
12.5711019756
 30
0.0
 10
6.4234882432
 20
12.6339865193
 30
0.0
 10
6.4283193596
 20
12.665783
 30
0.0
  0
SPLINE
  5
3A2
100
AcDbEntity
  8
0
100
AcDbSpline
 62
7
  6
BYLAYER
 70
0
 71
3
 72
13
 73
9
 74
0
 42
0.0000001
 43
0.0000001
 44
0.0000000001
 40
0.0
 40
0.0
 40
0.0
 40
0.0
 40
0.2540493772
 40
0.5095866053
 40
0.6358480571
 40
0.760087578
 40
0.8816500345
 40
1.0
 40
1.0
 40
1.0
 40
1.0
 10
6.9615114145
 20
12.5698873086
 30
0.0
 10
6.9612757913
 20
12.6010423832
 30
0.0
 10
6.9593885264
 20
12.6635329861
 30
0.0
 10
6.9533822541
 20
12.74131312
 30
0.0
 10
6.9462483225
 20
12.802967165
 30
0.0
 10
6.9397768345
 20
12.848141248
 30
0.0
 10
6.9321352728
 20
12.8921480598
 30
0.0
 10
6.9261381698
 20
12.9209602915
 30
0.0
 10
6.9229070192
 20
12.9351101974
 30
0.0
  0
SPLINE
  5
3A3
100
AcDbEntity
  8
0
100
AcDbSpline
 62
7
  6
BYLAYER
 70
0
 71
3
 72
10
 73
6
 74
0
 42
0.0000001
 43
0.0000001
 44
0.0000000001
 40
0.0
 40
0.0
 40
0.0
 40
0.0
 40
0.5029888064
 40
0.7513288183
 40
1.0
 40
1.0
 40
1.0
 40
1.0
 10
6.8976982407
 20
13.024904912
 30
0.0
 10
6.8934557187
 20
13.0371698431
 30
0.0
 10
6.8865657786
 20
13.0553148792
 30
0.0
 10
6.8758716019
 20
13.0788038616
 30
0.0
 10
6.8699431551
 20
13.0901858379
 30
0.0
 10
6.8667877468
 20
13.0957724488
 30
0.0
  0
SPLINE
  5
3A4
100
AcDbEntity
  8
0
100
AcDbSpline
 62
7
  6
BYLAYER
 70
0
 71
3
 72
13
 73
9
 74
0
 42
0.0000001
 43
0.0000001
 44
0.0000000001
 40
0.0
 40
0.0
 40
0.0
 40
0.0
 40
0.1264626838
 40
0.2528205893
 40
0.3789205916
 40
0.5046070092
 40
0.7537655837
 40
1.0
 40
1.0
 40
1.0
 40
1.0
 10
6.6812499619
 20
12.6069033226
 30
0.0
 10
6.6832580872
 20
12.6069033216
 30
0.0
 10
6.6872735048
 20
12.6069967584
 30
0.0
 10
6.6932758182
 20
12.6074640277
 30
0.0
 10
6.699221182
 20
12.608353579
 30
0.0
 10
6.7069641488
 20
12.6102144825
 30
0.0
 10
6.7161695732
 20
12.6139789503
 30
0.0
 10
6.7225782288
 20
12.6187349859
 30
0.0
 10
6.7253489626
 20
12.6214938196
 30
0.0
  0
SPLINE
  5
3A5
100
AcDbEntity
  8
0
100
AcDbSpline
 62
7
  6
BYLAYER
 70
0
 71
3
 72
13
 73
9
 74
0
 42
0.0000001
 43
0.0000001
 44
0.0000000001
 40
0.0
 40
0.0
 40
0.0
 40
0.0
 40
0.246222048
 40
0.4953643188
 40
0.621047464
 40
0.7471437341
 40
0.8735217008
 40
1.0
 40
1.0
 40
1.0
 40
1.0
 10
6.6371510382
 20
12.6214938189
 30
0.0
 10
6.6399216309
 20
12.6187351256
 30
0.0
 10
6.6463298702
 20
12.6139792502
 30
0.0
 10
6.6555347628
 20
12.6102151458
 30
0.0
 10
6.6632771791
 20
12.608353264
 30
0.0
 10
6.6692229522
 20
12.6074653799
 30
0.0
 10
6.6752255306
 20
12.6069950816
 30
0.0
 10
6.6792415899
 20
12.6069033224
 30
0.0
 10
6.6812499619
 20
12.6069033214
 30
0.0
  0
SPLINE
  5
3A6
100
AcDbEntity
  8
0
100
AcDbSpline
 62
7
  6
BYLAYER
 70
0
 71
3
 72
15
 73
11
 74
0
 42
0.0000001
 43
0.0000001
 44
0.0000000001
 40
0.0
 40
0.0
 40
0.0
 40
0.0
 40
0.0353310011
 40
0.0626781264
 40
0.0976426785
 40
0.1905884972
 40
0.3127144131
 40
0.4602281462
 40
0.6281680007
 40
1.0
 40
1.0
 40
1.0
 40
1.0
 10
4.76875
 20
11.8756089685
 30
0.0
 10
4.76875
 20
11.8759141209
 30
0.0
 10
4.7691614914
 20
11.8763939699
 30
0.0
 10
4.7698605313
 20
11.8768277762
 30
0.0
 10
4.771088019
 20
11.8773979852
 30
0.0
 10
4.7731565397
 20
11.8780217484
 30
0.0
 10
4.7762234893
 20
11.878673328
 30
0.0
 10
4.7799640171
 20
11.8792244898
 30
0.0
 10
4.7858730486
 20
11.8798068421
 30
0.0
 10
4.7905385032
 20
11.8799713177
 30
0.0
 10
4.79375
 20
11.8799713177
 30
0.0
  0
SPLINE
  5
3A7
100
AcDbEntity
  8
0
100
AcDbSpline
 62
7
  6
BYLAYER
 70
0
 71
3
 72
15
 73
11
 74
0
 42
0.0000001
 43
0.0000001
 44
0.0000000001
 40
0.0
 40
0.0
 40
0.0
 40
0.0
 40
0.3718319993
 40
0.5397718538
 40
0.6872855869
 40
0.8094115028
 40
0.9023573215
 40
0.9373218736
 40
0.9646689989
 40
1.0
 40
1.0
 40
1.0
 40
1.0
 10
4.99375
 20
11.8799713177
 30
0.0
 10
4.9969614968
 20
11.8799713177
 30
0.0
 10
5.0016269514
 20
11.8798068421
 30
0.0
 10
5.0075359829
 20
11.8792244898
 30
0.0
 10
5.0112765107
 20
11.878673328
 30
0.0
 10
5.0143434603
 20
11.8780217484
 30
0.0
 10
5.016411981
 20
11.8773979852
 30
0.0
 10
5.0176394687
 20
11.8768277762
 30
0.0
 10
5.0183385086
 20
11.8763939699
 30
0.0
 10
5.01875
 20
11.8759141209
 30
0.0
 10
5.01875
 20
11.8756089685
 30
0.0
  0
SPLINE
  5
3A8
100
AcDbEntity
  8
0
100
AcDbSpline
 62
7
  6
BYLAYER
 70
0
 71
3
 72
20
 73
16
 74
0
 42
0.0000001
 43
0.0000001
 44
0.0000000001
 40
0.0
 40
0.0
 40
0.0
 40
0.0
 40
0.000661057
 40
0.0026763207
 40
0.0060939844
 40
0.0109624734
 40
0.0252613632
 40
0.0461707315
 40
0.0744288416
 40
0.1107399239
 40
0.1556872643
 40
0.2098273953
 40
0.3471780636
 40
0.5247248905
 40
1.0
 40
1.0
 40
1.0
 40
1.0
 10
16.3568703226
 20
5.0101980718
 30
0.0
 10
16.3568668781
 20
5.0101986427
 30
0.0
 10
16.3568945218
 20
5.0101850536
 30
0.0
 10
16.3569064476
 20
5.0101739373
 30
0.0
 10
16.3569617178
 20
5.0101420724
 30
0.0
 10
16.3570582587
 20
5.0100825942
 30
0.0
 10
16.3572450342
 20
5.009973633
 30
0.0
 10
16.3575348386
 20
5.0098098139
 30
0.0
 10
16.3579333171
 20
5.0095954816
 30
0.0
 10
16.3584473915
 20
5.0093310978
 30
0.0
 10
16.3590891164
 20
5.0090151353
 30
0.0
 10
16.3602182709
 20
5.00848185
 30
0.0
 10
16.3620002068
 20
5.0076912702
 30
0.0
 10
16.3658567108
 20
5.0060954623
 30
0.0
 10
16.3690913312
 20
5.004896657
 30
0.0
 10
16.3714608196
 20
5.004068
 30
0.0
  0
SPLINE
  5
3A9
100
AcDbEntity
  8
0
100
AcDbSpline
 62
7
  6
BYLAYER
 70
0
 71
3
 72
9
 73
5
 74
0
 42
0.0000001
 43
0.0000001
 44
0.0000000001
 40
0.0
 40
0.0
 40
0.0
 40
0.0
 40
0.5259427156
 40
1.0
 40
1.0
 40
1.0
 40
1.0
 10
16.4419227382
 20
4.9850460797
 30
0.0
 10
16.429337313
 20
4.9874039023
 30
0.0
 10
16.4055937014
 20
4.9929370301
 30
0.0
 10
16.3823549435
 20
5.0002580722
 30
0.0
 10
16.3714607333
 20
5.004068
 30
0.0
  0
SPLINE
  5
3AA
100
AcDbEntity
  8
0
100
AcDbSpline
 62
7
  6
BYLAYER
 70
0
 71
3
 72
9
 73
5
 74
0
 42
0.0000001
 43
0.0000001
 44
0.0000000001
 40
0.0
 40
0.0
 40
0.0
 40
0.0
 40
0.5079734013
 40
1.0
 40
1.0
 40
1.0
 40
1.0
 10
16.9622700202
 20
4.4290974349
 30
0.0
 10
16.9597177752
 20
4.4436785256
 30
0.0
 10
16.9543086046
 20
4.4723160058
 30
0.0
 10
16.9484167078
 20
4.5008552658
 30
0.0
 10
16.9454956373
 20
4.5148926323
 30
0.0
  0
SPLINE
  5
3AB
100
AcDbEntity
  8
0
100
AcDbSpline
 62
7
  6
BYLAYER
 70
0
 71
3
 72
20
 73
16
 74
0
 42
0.0000001
 43
0.0000001
 44
0.0000000001
 40
0.0
 40
0.0
 40
0.0
 40
0.0
 40
0.1775931689
 40
0.3393060797
 40
0.4138800417
 40
0.4841517363
 40
0.5501251461
 40
0.6118792329
 40
0.669581496
 40
0.7235090159
 40
0.8215958138
 40
0.8672032272
 40
0.9115170575
 40
0.9554641522
 40
1.0
 40
1.0
 40
1.0
 40
1.0
 10
16.6916742997
 20
12.7799763412
 30
0.0
 10
16.6976099655
 20
12.7991841625
 30
0.0
 10
16.710220569
 20
12.8355092542
 30
0.0
 10
16.7293058794
 20
12.8783828412
 30
0.0
 10
16.7459240211
 20
12.9088676619
 30
0.0
 10
16.7585699655
 20
12.9291254223
 30
0.0
 10
16.7716883954
 20
12.9473230842
 30
0.0
 10
16.7852296253
 20
12.9633903048
 30
0.0
 10
16.7991561656
 20
12.977269055
 30
0.0
 10
16.8175612182
 20
12.992294339
 30
0.0
 10
16.8372487037
 20
13.003534358
 30
0.0
 10
16.8576645148
 20
13.0098019754
 30
0.0
 10
16.872730041
 20
13.011966127
 30
0.0
 10
16.8878231642
 20
13.011679198
 30
0.0
 10
16.897725949
 20
13.0098796688
 30
0.0
 10
16.9026044356
 20
13.0086076939
 30
0.0
  0
SPLINE
  5
3AC
100
AcDbEntity
  8
0
100
AcDbSpline
 62
7
  6
BYLAYER
 70
0
 71
3
 72
30
 73
26
 74
0
 42
0.0000001
 43
0.0000001
 44
0.0000000001
 40
0.0
 40
0.0
 40
0.0
 40
0.0
 40
0.068994555
 40
0.1428744164
 40
0.2204043988
 40
0.3002211268
 40
0.3808881225
 40
0.4609421089
 40
0.5389390057
 40
0.6135010707
 40
0.6833664485
 40
0.7161969132
 40
0.7474635285
 40
0.7770695195
 40
0.804939812
 40
0.8310251788
 40
0.8553078526
 40
0.8778091043
 40
0.898598786
 40
0.9178066545
 40
0.9356350227
 40
0.9523692324
 40
0.9683786803
 40
0.98410006
 40
1.0
 40
1.0
 40
1.0
 40
1.0
 10
16.6916742997
 20
12.7799763412
 30
0.0
 10
16.6841324069
 20
12.7555707671
 30
0.0
 10
16.6707202063
 20
12.7043355598
 30
0.0
 10
16.6557373677
 20
12.6240640396
 30
0.0
 10
16.6454223483
 20
12.5390238257
 30
0.0
 10
16.6400010327
 20
12.4510205791
 30
0.0
 10
16.6395919639
 20
12.3619178041
 30
0.0
 10
16.6442035993
 20
12.2736076287
 30
0.0
 10
16.6537356479
 20
12.1879610934
 30
0.0
 10
16.667980498
 20
12.1067955712
 30
0.0
 10
16.6838321426
 20
12.0430384816
 30
0.0
 10
16.6987850981
 20
11.9957339091
 30
0.0
 10
16.710724757
 20
11.9631468568
 30
0.0
 10
16.7235571375
 20
11.9328841479
 30
0.0
 10
16.7372153377
 20
11.9051044217
 30
0.0
 10
16.7516284681
 20
11.8799526187
 30
0.0
 10
16.7667238862
 20
11.8575591339
 30
0.0
 10
16.7824281841
 20
11.8380396099
 30
0.0
 10
16.7986687961
 20
11.8214957098
 30
0.0
 10
16.8153753934
 20
11.8080182806
 30
0.0
 10
16.8324786242
 20
11.7976926438
 30
0.0
 10
16.8499012752
 20
11.7906029578
 30
0.0
 10
16.8675471298
 20
11.7868296015
 30
0.0
 10
16.8852794127
 20
11.7864277058
 30
0.0
 10
16.8969011725
 20
11.7883863669
 30
0.0
 10
16.9025976328
 20
11.7898709772
 30
0.0
  0
SPLINE
  5
3AD
100
AcDbEntity
  8
0
100
AcDbSpline
 62
7
  6
BYLAYER
 70
0
 71
3
 72
9
 73
5
 74
0
 42
0.0000001
 43
0.0000001
 44
0.0000000001
 40
0.0
 40
0.0
 40
0.0
 40
0.0
 40
0.2565448554
 40
1.0
 40
1.0
 40
1.0
 40
1.0
 10
17.0518072587
 20
12.2013204093
 30
0.0
 10
17.0529024417
 20
12.1945015012
 30
0.0
 10
17.0574239414
 20
12.1679633937
 30
0.0
 10
17.0629657755
 20
12.1415951724
 30
0.0
 10
17.0677432886
 20
12.1221596195
 30
0.0
  0
SPLINE
  5
3AE
100
AcDbEntity
  8
0
100
AcDbSpline
 62
7
  6
BYLAYER
 70
0
 71
3
 72
15
 73
11
 74
0
 42
0.0000001
 43
0.0000001
 44
0.0000000001
 40
0.0
 40
0.0
 40
0.0
 40
0.0
 40
0.1619783394
 40
0.315127138
 40
0.4581609562
 40
0.5900806718
 40
0.7101849282
 40
0.8182018822
 40
0.9144438881
 40
1.0
 40
1.0
 40
1.0
 40
1.0
 10
16.7213426268
 20
12.1309438353
 30
0.0
 10
16.725045343
 20
12.1119578079
 30
0.0
 10
16.7331680288
 20
12.0751905272
 30
0.0
 10
16.7479560238
 20
12.0224802929
 30
0.0
 10
16.7648719411
 20
11.9741934401
 30
0.0
 10
16.7837165576
 20
11.9308873704
 30
0.0
 10
16.8042776653
 20
11.8930521237
 30
0.0
 10
16.8263432961
 20
11.861100973
 30
0.0
 10
16.8496891261
 20
11.8353954667
 30
0.0
 10
16.866914705
 20
11.8219174121
 30
0.0
 10
16.8756175508
 20
11.8165645939
 30
0.0
  0
SPLINE
  5
3AF
100
AcDbEntity
  8
0
100
AcDbSpline
 62
7
  6
BYLAYER
 70
0
 71
3
 72
14
 73
10
 74
0
 42
0.0000001
 43
0.0000001
 44
0.0000000001
 40
0.0
 40
0.0
 40
0.0
 40
0.0
 40
0.2961765448
 40
0.4302359325
 40
0.5558190406
 40
0.6740019494
 40
0.7862118726
 40
0.8942013895
 40
1.0
 40
1.0
 40
1.0
 40
1.0
 10
16.8688801551
 20
13.1046506828
 30
0.0
 10
16.8583486381
 20
13.119116816
 30
0.0
 10
16.8416355873
 20
13.1392237187
 30
0.0
 10
16.8167377475
 20
13.1618237964
 30
0.0
 10
16.7982949219
 20
13.1753557937
 30
0.0
 10
16.7795235899
 20
13.1859660398
 30
0.0
 10
16.7604864859
 20
13.1936010929
 30
0.0
 10
16.7412642601
 20
13.1982098515
 30
0.0
 10
16.7283257736
 20
13.1992390187
 30
0.0
 10
16.7219339076
 20
13.1992391638
 30
0.0
  0
SPLINE
  5
3B0
100
AcDbEntity
  8
0
100
AcDbSpline
 62
7
  6
BYLAYER
 70
0
 71
3
 72
9
 73
5
 74
0
 42
0.0000001
 43
0.0000001
 44
0.0000000001
 40
0.0
 40
0.0
 40
0.0
 40
0.0
 40
0.2358677989
 40
1.0
 40
1.0
 40
1.0
 40
1.0
 10
16.538807727
 20
11.5515117389
 30
0.0
 10
16.5380249223
 20
11.5519392607
 30
0.0
 10
16.5345711102
 20
11.5535045677
 30
0.0
 10
16.5307177477
 20
11.554080787
 30
0.0
 10
16.5278281605
 20
11.554080787
 30
0.0
  0
SPLINE
  5
3B1
100
AcDbEntity
  8
0
100
AcDbSpline
 62
7
  6
BYLAYER
 70
0
 71
3
 72
11
 73
7
 74
0
 42
0.0000001
 43
0.0000001
 44
0.0000000001
 40
0.0
 40
0.0
 40
0.0
 40
0.0
 40
0.2268630568
 40
0.4649901318
 40
0.7222804645
 40
1.0
 40
1.0
 40
1.0
 40
1.0
 10
16.4899468731
 20
11.5371158028
 30
0.0
 10
16.4906362
 20
11.5357167021
 30
0.0
 10
16.4925575736
 20
11.5330739408
 30
0.0
 10
16.4966710688
 20
11.5301622149
 30
0.0
 10
16.5017450131
 20
11.5283945721
 30
0.0
 10
16.505439054
 20
11.5280263773
 30
0.0
 10
16.5073483921
 20
11.5280263773
 30
0.0
  0
SPLINE
  5
3B2
100
AcDbEntity
  8
0
100
AcDbSpline
 62
7
  6
BYLAYER
 70
0
 71
3
 72
9
 73
5
 74
0
 42
0.0000001
 43
0.0000001
 44
0.0000000001
 40
0.0
 40
0.0
 40
0.0
 40
0.0
 40
0.4835790393
 40
1.0
 40
1.0
 40
1.0
 40
1.0
 10
15.4767797797
 20
11.5371158028
 30
0.0
 10
15.4775991278
 20
11.5354528029
 30
0.0
 10
15.4800260384
 20
11.5323379759
 30
0.0
 10
15.4834137453
 20
11.5303666169
 30
0.0
 10
15.4852525776
 20
11.5296329431
 30
0.0
  0
SPLINE
  5
3B3
100
AcDbEntity
  8
0
100
AcDbSpline
 62
7
  6
BYLAYER
 70
0
 71
3
 72
15
 73
11
 74
0
 42
0.0000001
 43
0.0000001
 44
0.0000000001
 40
0.0
 40
0.0
 40
0.0
 40
0.0
 40
0.160387976
 40
0.309047793
 40
0.4462417637
 40
0.5726084286
 40
0.6892389215
 40
0.7977717856
 40
0.9004362492
 40
1.0
 40
1.0
 40
1.0
 40
1.0
 10
17.033603614
 20
12.9749011549
 30
0.0
 10
17.0281521708
 20
12.9845867622
 30
0.0
 10
17.0170231408
 20
13.0029105012
 30
0.0
 10
16.9989029473
 20
13.028013464
 30
0.0
 10
16.9800741381
 20
13.0495595176
 30
0.0
 10
16.9606276951
 20
13.0674260261
 30
0.0
 10
16.9406497134
 20
13.0815021907
 30
0.0
 10
16.9202261942
 20
13.091679517
 30
0.0
 10
16.8994758292
 20
13.0978510071
 30
0.0
 10
16.8854264488
 20
13.099238076
 30
0.0
 10
16.8785270018
 20
13.0992394975
 30
0.0
  0
SPLINE
  5
3B4
100
AcDbEntity
  8
0
100
AcDbSpline
 62
7
  6
BYLAYER
 70
0
 71
3
 72
23
 73
19
 74
0
 42
0.0000001
 43
0.0000001
 44
0.0000000001
 40
0.0
 40
0.0
 40
0.0
 40
0.0
 40
0.0504824695
 40
0.1052344279
 40
0.1640617117
 40
0.2265557663
 40
0.2921490933
 40
0.3601575928
 40
0.4298150471
 40
0.5003035701
 40
0.5707806051
 40
0.6404039028
 40
0.7083565471
 40
0.7738742174
 40
0.8362755279
 40
0.8949966411
 40
0.9496338936
 40
1.0
 40
1.0
 40
1.0
 40
1.0
 10
14.6114243611
 20
11.804196833
 30
0.0
 10
14.6011599796
 20
11.8221531288
 30
0.0
 10
14.5819146647
 20
11.8608321281
 30
0.0
 10
14.5574539183
 20
11.9235122058
 30
0.0
 10
14.5363363223
 20
11.9925535718
 30
0.0
 10
14.5187357146
 20
12.0671319218
 30
0.0
 10
14.5048318337
 20
12.146303017
 30
0.0
 10
14.4947889802
 20
12.2290084772
 30
0.0
 10
14.4887330839
 20
12.3141092807
 30
0.0
 10
14.4867426111
 20
12.4004124668
 30
0.0
 10
14.4888438279
 20
12.4866990456
 30
0.0
 10
14.4950090402
 20
12.5717503588
 30
0.0
 10
14.5051584368
 20
12.6543745191
 30
0.0
 10
14.5191647168
 20
12.7334344076
 30
0.0
 10
14.536862899
 20
12.8078742623
 30
0.0
 10
14.5580730451
 20
12.8767532185
 30
0.0
 10
14.582622473
 20
12.9392506912
 30
0.0
 10
14.6019291404
 20
12.9777941347
 30
0.0
 10
14.6122240496
 20
12.9956779567
 30
0.0
  0
SPLINE
  5
3B5
100
AcDbEntity
  8
0
100
AcDbSpline
 62
7
  6
BYLAYER
 70
0
 71
3
 72
15
 73
11
 74
0
 42
0.0000001
 43
0.0000001
 44
0.0000000001
 40
0.0
 40
0.0
 40
0.0
 40
0.0
 40
0.0995585499
 40
0.2022152414
 40
0.3107444461
 40
0.4273649464
 40
0.5537128927
 40
0.6909022066
 40
0.83961022
 40
1.0
 40
1.0
 40
1.0
 40
1.0
 10
16.8785030449
 20
11.6992403261
 30
0.0
 10
16.8854037386
 20
11.6992393656
 30
0.0
 10
16.8994555234
 20
11.7006268964
 30
0.0
 10
16.9202114538
 20
11.7067929874
 30
0.0
 10
16.9406381979
 20
11.7169729753
 30
0.0
 10
16.9606209316
 20
11.731048062
 30
0.0
 10
16.9800707733
 20
11.7489167382
 30
0.0
 10
16.9989058974
 20
11.7704684432
 30
0.0
 10
17.0170295618
 20
11.7955817903
 30
0.0
 10
17.0281623852
 20
11.8139130063
 30
0.0
 10
17.0336154952
 20
11.8236007895
 30
0.0
  0
SPLINE
  5
3B6
100
AcDbEntity
  8
0
100
AcDbSpline
 62
7
  6
BYLAYER
 70
0
 71
3
 72
11
 73
7
 74
0
 42
0.0000001
 43
0.0000001
 44
0.0000000001
 40
0.0
 40
0.0
 40
0.0
 40
0.0
 40
0.275374821
 40
0.5298041644
 40
0.7689607212
 40
1.0
 40
1.0
 40
1.0
 40
1.0
 10
16.873091199
 20
11.6973542065
 30
0.0
 10
16.8660583379
 20
11.6913214379
 30
0.0
 10
16.8517653151
 20
11.6805494029
 30
0.0
 10
16.8288188774
 20
11.668332694
 30
0.0
 10
16.8054410058
 20
11.660914431
 30
0.0
 10
16.7895750556
 20
11.659240024
 30
0.0
 10
16.7818010387
 20
11.6592402549
 30
0.0
  0
SPLINE
  5
3B7
100
AcDbEntity
  8
0
100
AcDbSpline
 62
7
  6
BYLAYER
 70
0
 71
3
 72
11
 73
7
 74
0
 42
0.0000001
 43
0.0000001
 44
0.0000000001
 40
0.0
 40
0.0
 40
0.0
 40
0.0
 40
0.2303736878
 40
0.4691814115
 40
0.7238065038
 40
1.0
 40
1.0
 40
1.0
 40
1.0
 10
16.7818010387
 20
13.1392394635
 30
0.0
 10
16.7897362928
 20
13.1392389116
 30
0.0
 10
16.80594536
 20
13.1374967079
 30
0.0
 10
16.829806188
 20
13.1297566099
 30
0.0
 10
16.8532075017
 20
13.1170307989
 30
0.0
 10
16.8677492619
 20
13.105825729
 30
0.0
 10
16.8749028783
 20
13.0995541335
 30
0.0
  0
SPLINE
  5
3B8
100
AcDbEntity
  8
0
100
AcDbSpline
 62
7
  6
BYLAYER
 70
0
 71
3
 72
11
 73
7
 74
0
 42
0.0000001
 43
0.0000001
 44
0.0000000001
 40
0.0
 40
0.0
 40
0.0
 40
0.0
 40
0.2238694623
 40
0.4592381841
 40
0.7157654272
 40
1.0
 40
1.0
 40
1.0
 40
1.0
 10
16.7219411617
 20
11.5992416262
 30
0.0
 10
16.732193783
 20
11.599242947
 30
0.0
 10
16.7533105065
 20
11.6019740804
 30
0.0
 10
16.7840953176
 20
11.6139965647
 30
0.0
 10
16.8139857576
 20
11.6336140142
 30
0.0
 10
16.8321696096
 20
11.650588944
 30
0.0
 10
16.8410888111
 20
11.6600702341
 30
0.0
  0
SPLINE
  5
3B9
100
AcDbEntity
  8
0
100
AcDbSpline
 62
7
  6
BYLAYER
 70
0
 71
3
 72
35
 73
31
 74
0
 42
0.0000001
 43
0.0000001
 44
0.0000000001
 40
0.0
 40
0.0
 40
0.0
 40
0.0
 40
0.0168139826
 40
0.0344925847
 40
0.0537558287
 40
0.0751106877
 40
0.0988633551
 40
0.1251575307
 40
0.1540135235
 40
0.1853616656
 40
0.2190614467
 40
0.2549176521
 40
0.2926934704
 40
0.3321167209
 40
0.4146722038
 40
0.4999971304
 40
0.585322212
 40
0.6678782121
 40
0.7073017064
 40
0.7450780202
 40
0.7809346898
 40
0.814634853
 40
0.8459837038
 40
0.8748402209
 40
0.9011348548
 40
0.9248882618
 40
0.9462435558
 40
0.9655071629
 40
0.9831861694
 40
1.0
 40
1.0
 40
1.0
 40
1.0
 10
14.8199502091
 20
11.5992416262
 30
0.0
 10
14.8096908069
 20
11.5992403045
 30
0.0
 10
14.7885588703
 20
11.6019746996
 30
0.0
 10
14.7577572587
 20
11.614006044
 30
0.0
 10
14.7278429249
 20
11.6336460222
 30
0.0
 10
14.6990302447
 20
11.6605596867
 30
0.0
 10
14.6714871827
 20
11.6944571646
 30
0.0
 10
14.6454137465
 20
11.7350253382
 30
0.0
 10
14.6210203939
 20
11.7818975162
 30
0.0
 10
14.5985272046
 20
11.834647199
 30
0.0
 10
14.578142436
 20
11.8927843527
 30
0.0
 10
14.5600579389
 20
11.9557619063
 30
0.0
 10
14.5444486565
 20
12.0229847977
 30
0.0
 10
14.5268729752
 20
12.1188944078
 30
0.0
 10
14.5122753779
 20
12.2446985328
 30
0.0
 10
14.5064403602
 20
12.3992314723
 30
0.0
 10
14.512274315
 20
12.5537647349
 30
0.0
 10
14.5268703071
 20
12.6795696277
 30
0.0
 10
14.5444456832
 20
12.7754800695
 30
0.0
 10
14.56005399
 20
12.8427039326
 30
0.0
 10
14.5781379852
 20
12.9056824987
 30
0.0
 10
14.5985226706
 20
12.963820671
 30
0.0
 10
14.6210148828
 20
13.0165718305
 30
0.0
 10
14.6454079842
 20
13.0634453358
 30
0.0
 10
14.6714814721
 20
13.10401468
 30
0.0
 10
14.6990236217
 20
13.1379141559
 30
0.0
 10
14.7278362965
 20
13.1648293038
 30
0.0
 10
14.7577506336
 20
13.1844703931
 30
0.0
 10
14.788551708
 20
13.1965043164
 30
0.0
 10
14.8096836455
 20
13.1992393967
 30
0.0
 10
14.819942955
 20
13.1992391638
 30
0.0
  0
SPLINE
  5
3BA
100
AcDbEntity
  8
0
100
AcDbSpline
 62
7
  6
BYLAYER
 70
0
 71
3
 72
9
 73
5
 74
0
 42
0.0000001
 43
0.0000001
 44
0.0000000001
 40
0.0
 40
0.0
 40
0.0
 40
0.0
 40
0.5232187543
 40
1.0
 40
1.0
 40
1.0
 40
1.0
 10
15.4891878746
 20
11.5425303206
 30
0.0
 10
15.487622366
 20
11.5407757532
 30
0.0
 10
15.4849940676
 20
11.5370657845
 30
0.0
 10
15.4834928332
 20
11.5327391698
 30
0.0
 10
15.4831589797
 20
11.5306225859
 30
0.0
  0
SPLINE
  5
3BB
100
AcDbEntity
  8
0
100
AcDbSpline
 62
7
  6
BYLAYER
 70
0
 71
3
 72
12
 73
8
 74
0
 42
0.0000001
 43
0.0000001
 44
0.0000000001
 40
0.0
 40
0.0
 40
0.0
 40
0.0
 40
0.2567204982
 40
0.3902273217
 40
0.5231813777
 40
0.7758926627
 40
1.0
 40
1.0
 40
1.0
 40
1.0
 10
16.5278281605
 20
11.554080787
 30
0.0
 10
16.5242249285
 20
11.554080787
 30
0.0
 10
16.5187122529
 20
11.5530573584
 30
0.0
 10
16.5119596707
 20
11.5501303444
 30
0.0
 10
16.5057700573
 20
11.5462370671
 30
0.0
 10
16.4996153687
 20
11.5400789941
 30
0.0
 10
16.4968161585
 20
11.5337296583
 30
0.0
 10
16.4963260731
 20
11.5306225859
 30
0.0
  0
SPLINE
  5
3BC
100
AcDbEntity
  8
0
100
AcDbSpline
 62
7
  6
BYLAYER
 70
0
 71
3
 72
13
 73
9
 74
0
 42
0.0000001
 43
0.0000001
 44
0.0000000001
 40
0.0
 40
0.0
 40
0.0
 40
0.0
 40
0.2703666341
 40
0.5445113913
 40
0.6725053084
 40
0.7902812471
 40
0.8982226173
 40
1.0
 40
1.0
 40
1.0
 40
1.0
 10
16.5073483921
 20
11.5280263773
 30
0.0
 10
16.5119706038
 20
11.5280263773
 30
0.0
 10
16.5213203138
 20
11.5302297271
 30
0.0
 10
16.5310384655
 20
11.5369355884
 30
0.0
 10
16.5364325709
 20
11.544092028
 30
0.0
 10
16.5387912747
 20
11.5497440522
 30
0.0
 10
16.5393337264
 20
11.5554140457
 30
0.0
 10
16.5383726446
 20
11.5589707763
 30
0.0
 10
16.5376036328
 20
11.5605316106
 30
0.0
  0
SPLINE
  5
3BD
100
AcDbEntity
  8
0
100
AcDbSpline
 62
7
  6
BYLAYER
 70
0
 71
3
 72
11
 73
7
 74
0
 42
0.0000001
 43
0.0000001
 44
0.0000000001
 40
0.0
 40
0.0
 40
0.0
 40
0.0
 40
0.2224617775
 40
0.4572314228
 40
0.7154484947
 40
1.0
 40
1.0
 40
1.0
 40
1.0
 10
15.5895053685
 20
11.8669013812
 30
0.0
 10
15.5899632951
 20
11.8683832296
 30
0.0
 10
15.5915248341
 20
11.8712700573
 30
0.0
 10
15.5954335419
 20
11.8745281577
 30
0.0
 10
15.6005549795
 20
11.8765258608
 30
0.0
 10
15.6043601237
 20
11.8769342942
 30
0.0
 10
15.606344
 20
11.8769342942
 30
0.0
  0
SPLINE
  5
3BE
100
AcDbEntity
  8
0
100
AcDbSpline
 62
7
  6
BYLAYER
 70
0
 71
3
 72
10
 73
6
 74
0
 42
0.0000001
 43
0.0000001
 44
0.0000000001
 40
0.0
 40
0.0
 40
0.0
 40
0.0
 40
0.2446331618
 40
0.6273595862
 40
1.0
 40
1.0
 40
1.0
 40
1.0
 10
15.7905561988
 20
11.8769342942
 30
0.0
 10
15.7927391506
 20
11.8769342942
 30
0.0
 10
15.7983466411
 20
11.8762690218
 30
0.0
 10
15.8067843016
 20
11.8730266085
 30
0.0
 10
15.8122775321
 20
11.8689321965
 30
0.0
 10
15.8145943439
 20
11.8665469523
 30
0.0
  0
SPLINE
  5
3BF
100
AcDbEntity
  8
0
100
AcDbSpline
 62
7
  6
BYLAYER
 70
0
 71
3
 72
35
 73
31
 74
0
 42
0.0000001
 43
0.0000001
 44
0.0000000001
 40
0.0
 40
0.0
 40
0.0
 40
0.0
 40
0.0168138306
 40
0.0344928371
 40
0.0537564442
 40
0.0751117382
 40
0.0988651452
 40
0.1251597791
 40
0.1540162962
 40
0.185365147
 40
0.2190653102
 40
0.2549219798
 40
0.2926982936
 40
0.3321217879
 40
0.414677788
 40
0.5000028696
 40
0.5853277962
 40
0.6678832791
 40
0.7073065296
 40
0.7450823479
 40
0.7809385533
 40
0.8146383344
 40
0.8459864765
 40
0.8748424693
 40
0.9011366449
 40
0.9248893123
 40
0.9462441713
 40
0.9655074153
 40
0.9831860174
 40
1.0
 40
1.0
 40
1.0
 40
1.0
 10
16.7219339076
 20
13.1992391638
 30
0.0
 10
16.7116745981
 20
13.1992393967
 30
0.0
 10
16.6905426607
 20
13.1965043164
 30
0.0
 10
16.6597415862
 20
13.1844703931
 30
0.0
 10
16.6298272491
 20
13.1648293038
 30
0.0
 10
16.6010145743
 20
13.1379141559
 30
0.0
 10
16.5734724248
 20
13.10401468
 30
0.0
 10
16.5473989368
 20
13.0634453358
 30
0.0
 10
16.5230058354
 20
13.0165718305
 30
0.0
 10
16.5005136232
 20
12.963820671
 30
0.0
 10
16.4801289378
 20
12.9056824987
 30
0.0
 10
16.4620449426
 20
12.8427039326
 30
0.0
 10
16.4464366358
 20
12.7754800695
 30
0.0
 10
16.4288612597
 20
12.6795696277
 30
0.0
 10
16.4142652676
 20
12.5537647349
 30
0.0
 10
16.4084313128
 20
12.3992314723
 30
0.0
 10
16.4142663305
 20
12.2446985328
 30
0.0
 10
16.4288639278
 20
12.1188944078
 30
0.0
 10
16.4464396091
 20
12.0229847977
 30
0.0
 10
16.4620488915
 20
11.9557619063
 30
0.0
 10
16.4801333886
 20
11.8927843527
 30
0.0
 10
16.5005181572
 20
11.834647199
 30
0.0
 10
16.5230113465
 20
11.7818975162
 30
0.0
 10
16.5474046991
 20
11.7350253382
 30
0.0
 10
16.5734781353
 20
11.6944571646
 30
0.0
 10
16.6010211973
 20
11.6605596867
 30
0.0
 10
16.6298338775
 20
11.6336460222
 30
0.0
 10
16.6597482113
 20
11.614006044
 30
0.0
 10
16.690549823
 20
11.6019746996
 30
0.0
 10
16.7116817595
 20
11.5992403045
 30
0.0
 10
16.7219411617
 20
11.5992416262
 30
0.0
  0
SPLINE
  5
3C0
100
AcDbEntity
  8
0
100
AcDbSpline
 62
7
  6
BYLAYER
 70
0
 71
3
 72
35
 73
31
 74
0
 42
0.0000001
 43
0.0000001
 44
0.0000000001
 40
0.0
 40
0.0
 40
0.0
 40
0.0
 40
0.0168136129
 40
0.0344917976
 40
0.0537545522
 40
0.0751087459
 40
0.0988606389
 40
0.1251540573
 40
0.1540091769
 40
0.1853566656
 40
0.2190556081
 40
0.2549110867
 40
0.2926864208
 40
0.3321089635
 40
0.4146637141
 40
0.4999882406
 40
0.5853134284
 40
0.6678698454
 40
0.707294055
 40
0.7450704911
 40
0.7809281413
 40
0.8146292008
 40
0.8459783652
 40
0.8748363918
 40
0.9011317479
 40
0.9248857532
 40
0.9462425022
 40
0.9655064553
 40
0.9831859012
 40
1.0
 40
1.0
 40
1.0
 40
1.0
 10
16.8785270018
 20
13.0992394975
 30
0.0
 10
16.8695502476
 20
13.0992413471
 30
0.0
 10
16.8510603532
 20
13.0968483327
 30
0.0
 10
16.824108618
 20
13.0863242813
 30
0.0
 10
16.7979336043
 20
13.0691406399
 30
0.0
 10
16.7727223965
 20
13.0455930539
 30
0.0
 10
16.7486218625
 20
13.0159346526
 30
0.0
 10
16.7258075119
 20
12.9804392341
 30
0.0
 10
16.7044626569
 20
12.9394279425
 30
0.0
 10
16.6847810803
 20
12.8932735
 30
0.0
 10
16.6669437039
 20
12.8424051695
 30
0.0
 10
16.6511189819
 20
12.7873013238
 30
0.0
 10
16.6374608218
 20
12.7284825337
 30
0.0
 10
16.6220803833
 20
12.6445632342
 30
0.0
 10
16.6093069481
 20
12.534485945
 30
0.0
 10
16.604199582
 20
12.3992706835
 30
0.0
 10
16.6093015692
 20
12.2640542283
 30
0.0
 10
16.6220727955
 20
12.1539746199
 30
0.0
 10
16.6374487127
 20
12.0700520606
 30
0.0
 10
16.6511066768
 20
12.0112305205
 30
0.0
 10
16.6669282221
 20
11.9561228171
 30
0.0
 10
16.6847637517
 20
11.9052503919
 30
0.0
 10
16.7044452716
 20
11.8590921146
 30
0.0
 10
16.7257867001
 20
11.8180751417
 30
0.0
 10
16.7486010565
 20
11.7825751719
 30
0.0
 10
16.7727009203
 20
11.7529120436
 30
0.0
 10
16.7979094038
 20
11.7293566261
 30
0.0
 10
16.8240855687
 20
11.7121701825
 30
0.0
 10
16.8510356863
 20
11.7016377909
 30
0.0
 10
16.8695260312
 20
11.6992415755
 30
0.0
 10
16.8785030449
 20
11.6992403261
 30
0.0
  0
SPLINE
  5
3C1
100
AcDbEntity
  8
0
100
AcDbSpline
 62
7
  6
BYLAYER
 70
0
 71
3
 72
10
 73
6
 74
0
 42
0.0000001
 43
0.0000001
 44
0.0000000001
 40
0.0
 40
0.0
 40
0.0
 40
0.0
 40
0.5330161975
 40
0.7749904778
 40
1.0
 40
1.0
 40
1.0
 40
1.0
 10
15.8214942337
 20
11.8542515527
 30
0.0
 10
15.8317581757
 20
11.8259281732
 30
0.0
 10
15.848584553
 20
11.7853523689
 30
0.0
 10
15.8751406338
 20
11.7354240131
 30
0.0
 10
15.8891917627
 20
11.7130425756
 30
0.0
 10
15.8964132591
 20
11.7025744074
 30
0.0
  0
SPLINE
  5
3C2
100
AcDbEntity
  8
0
100
AcDbSpline
 62
7
  6
BYLAYER
 70
0
 71
3
 72
35
 73
31
 74
0
 42
0.0000001
 43
0.0000001
 44
0.0000000001
 40
0.0
 40
0.0
 40
0.0
 40
0.0
 40
0.016813892
 40
0.0344928333
 40
0.053756044
 40
0.0751118834
 40
0.0988648761
 40
0.1251591684
 40
0.1540161195
 40
0.1853642297
 40
0.2190642827
 40
0.2549209966
 40
0.2926965862
 40
0.3321200561
 40
0.4146753679
 40
0.5000000145
 40
0.5853246211
 40
0.667880097
 40
0.7073032409
 40
0.7450793267
 40
0.7809356979
 40
0.8146356597
 40
0.8459842717
 40
0.8748405924
 40
0.9011352498
 40
0.9248883643
 40
0.9462436892
 40
0.9655073823
 40
0.983186191
 40
1.0
 40
1.0
 40
1.0
 40
1.0
 10
16.8186434784
 20
11.6992403252
 30
0.0
 10
16.8096666038
 20
11.6992407789
 30
0.0
 10
16.7911764776
 20
11.7016352699
 30
0.0
 10
16.7642262852
 20
11.7121651325
 30
0.0
 10
16.738049959
 20
11.7293490843
 30
0.0
 10
16.7128412441
 20
11.7529020293
 30
0.0
 10
16.6887410732
 20
11.7825627091
 30
0.0
 10
16.6659263251
 20
11.818060274
 30
0.0
 10
16.6445844112
 20
11.8590749104
 30
0.0
 10
16.6249023121
 20
11.905230949
 30
0.0
 10
16.6070661106
 20
11.9561012621
 30
0.0
 10
16.5912438025
 20
12.0112070075
 30
0.0
 10
16.5775849913
 20
12.0700267705
 30
0.0
 10
16.5622077934
 20
12.1539473571
 30
0.0
 10
16.5494348422
 20
12.2640251282
 30
0.0
 10
16.5443306368
 20
12.3992402275
 30
0.0
 10
16.5494356672
 20
12.5344552817
 30
0.0
 10
16.5622070824
 20
12.6445331957
 30
0.0
 10
16.5775858788
 20
12.7284536439
 30
0.0
 10
16.5912428836
 20
12.7872737322
 30
0.0
 10
16.6070664924
 20
12.842379183
 30
0.0
 10
16.6249028083
 20
12.8932494153
 30
0.0
 10
16.6445833937
 20
12.9394060404
 30
0.0
 10
16.6659273289
 20
12.9804197793
 30
0.0
 10
16.6887408386
 20
13.0159178878
 30
0.0
 10
16.7128406128
 20
13.0455791971
 30
0.0
 10
16.7380511267
 20
13.0691299012
 30
0.0
 10
16.7642255128
 20
13.0863168748
 30
0.0
 10
16.79117672
 20
13.096844502
 30
0.0
 10
16.8096666482
 20
13.0992401187
 30
0.0
 10
16.8186434784
 20
13.0992394994
 30
0.0
  0
SPLINE
  5
3C3
100
AcDbEntity
  8
0
100
AcDbSpline
 62
7
  6
BYLAYER
 70
0
 71
3
 72
9
 73
5
 74
0
 42
0.0000001
 43
0.0000001
 44
0.0000000001
 40
0.0
 40
0.0
 40
0.0
 40
0.0
 40
0.5426741819
 40
1.0
 40
1.0
 40
1.0
 40
1.0
 10
15.8964132591
 20
11.7025744074
 30
0.0
 10
15.8970449014
 20
11.7016587886
 30
0.0
 10
15.8980221774
 20
11.6997950014
 30
0.0
 10
15.8980260192
 20
11.6976320965
 30
0.0
 10
15.8977492508
 20
11.6967364762
 30
0.0
  0
SPLINE
  5
3C4
100
AcDbEntity
  8
0
100
AcDbSpline
 62
7
  6
BYLAYER
 70
0
 71
3
 72
11
 73
7
 74
0
 42
0.0000001
 43
0.0000001
 44
0.0000000001
 40
0.0
 40
0.0
 40
0.0
 40
0.0
 40
0.2268630568
 40
0.4649901318
 40
0.7222804645
 40
1.0
 40
1.0
 40
1.0
 40
1.0
 10
16.5376036328
 20
11.5605316106
 30
0.0
 10
16.536914306
 20
11.5619307114
 30
0.0
 10
16.5349929324
 20
11.5645734727
 30
0.0
 10
16.5308794372
 20
11.5674851985
 30
0.0
 10
16.5258054929
 20
11.5692528413
 30
0.0
 10
16.522111452
 20
11.5696210362
 30
0.0
 10
16.5202021139
 20
11.5696210362
 30
0.0
  0
SPLINE
  5
3C5
100
AcDbEntity
  8
0
100
AcDbSpline
 62
7
  6
BYLAYER
 70
0
 71
3
 72
35
 73
31
 74
0
 42
0.0000001
 43
0.0000001
 44
0.0000000001
 40
0.0
 40
0.0
 40
0.0
 40
0.0
 40
0.0168141183
 40
0.0344935553
 40
0.0537575342
 40
0.075114319
 40
0.0988683742
 40
0.1251637562
 40
0.1540218248
 40
0.1853710244
 40
0.2190721052
 40
0.2549297861
 40
0.2927062398
 40
0.3321304652
 40
0.4146869026
 40
0.5000120877
 40
0.5853365885
 40
0.6678912965
 40
0.7073138124
 40
0.7450891194
 40
0.7809445687
 40
0.8146434827
 40
0.8459909425
 40
0.874846035
 40
0.9011394304
 40
0.9248912986
 40
0.9462454758
 40
0.9655082169
 40
0.9831863904
 40
1.0
 40
1.0
 40
1.0
 40
1.0
 10
16.7219214809
 20
11.6592402558
 30
0.0
 10
16.7124314868
 20
11.6592414347
 30
0.0
 10
16.6928845101
 20
11.6617747453
 30
0.0
 10
16.6643946213
 20
11.6729095238
 30
0.0
 10
16.6367225988
 20
11.6910779278
 30
0.0
 10
16.6100736701
 20
11.7159795196
 30
0.0
 10
16.5845967624
 20
11.7473378114
 30
0.0
 10
16.5604787179
 20
11.7848664076
 30
0.0
 10
16.5379178426
 20
11.8282272918
 30
0.0
 10
16.5171117151
 20
11.8770232483
 30
0.0
 10
16.49825703
 20
11.9308027102
 30
0.0
 10
16.4815314622
 20
11.9890594669
 30
0.0
 10
16.4670930759
 20
12.0512422628
 30
0.0
 10
16.4508385893
 20
12.1399604112
 30
0.0
 10
16.4373376469
 20
12.2563302752
 30
0.0
 10
16.4319441984
 20
12.3992733415
 30
0.0
 10
16.4373434748
 20
12.5422151048
 30
0.0
 10
16.4508468601
 20
12.6585824321
 30
0.0
 10
16.4671062126
 20
12.7472970321
 30
0.0
 10
16.4815448512
 20
12.8094768257
 30
0.0
 10
16.4982738572
 20
12.8677293903
 30
0.0
 10
16.5171305175
 20
12.9215044111
 30
0.0
 10
16.537936761
 20
12.9702961796
 30
0.0
 10
16.5605013245
 20
13.0136509054
 30
0.0
 10
16.5846193424
 20
13.0511745749
 30
0.0
 10
16.6100970556
 20
13.0825276755
 30
0.0
 10
16.6367488899
 20
13.1074207897
 30
0.0
 10
16.66441961
 20
13.1255863127
 30
0.0
 10
16.6929114406
 20
13.1367116701
 30
0.0
 10
16.7124578861
 20
13.139241433
 30
0.0
 10
16.721947593
 20
13.1392394613
 30
0.0
  0
SPLINE
  5
3C6
100
AcDbEntity
  8
0
100
AcDbSpline
 62
7
  6
BYLAYER
 70
0
 71
3
 72
35
 73
31
 74
0
 42
0.0000001
 43
0.0000001
 44
0.0000000001
 40
0.0
 40
0.0
 40
0.0
 40
0.0
 40
0.0168139072
 40
0.0344928178
 40
0.0537560206
 40
0.0751118557
 40
0.0988648557
 40
0.1251591327
 40
0.1540160866
 40
0.1853641966
 40
0.2190642407
 40
0.254920959
 40
0.2926965451
 40
0.3321200141
 40
0.4146753272
 40
0.4999999778
 40
0.5853245893
 40
0.6678800715
 40
0.7073032175
 40
0.7450793071
 40
0.7809356809
 40
0.8146356461
 40
0.8459842603
 40
0.8748405834
 40
0.9011352449
 40
0.9248883583
 40
0.9462436867
 40
0.9655073815
 40
0.9831861894
 40
1.0
 40
1.0
 40
1.0
 40
1.0
 10
16.7818010387
 20
11.6592402549
 30
0.0
 10
16.772311191
 20
11.6592405369
 30
0.0
 10
16.7527644386
 20
11.6617719096
 30
0.0
 10
16.724274435
 20
11.6729038619
 30
0.0
 10
16.6966022032
 20
11.6910694962
 30
0.0
 10
16.6699529899
 20
11.7159683534
 30
0.0
 10
16.6444757142
 20
11.7473239489
 30
0.0
 10
16.6203572129
 20
11.7848499101
 30
0.0
 10
16.5977957786
 20
11.8282082441
 30
0.0
 10
16.5769889915
 20
11.8770017678
 30
0.0
 10
16.5581335502
 20
11.9307789449
 30
0.0
 10
16.5414071276
 20
11.9890335918
 30
0.0
 10
16.5269677994
 20
12.0512144818
 30
0.0
 10
16.5107118956
 20
12.1399305292
 30
0.0
 10
16.4972090551
 20
12.2562984628
 30
0.0
 10
16.4918131816
 20
12.3992401477
 30
0.0
 10
16.49720992
 20
12.5421817878
 30
0.0
 10
16.5107111235
 20
12.6585498793
 30
0.0
 10
16.5269687113
 20
12.7472657899
 30
0.0
 10
16.5414061121
 20
12.8094470333
 30
0.0
 10
16.5581339297
 20
12.8677013732
 30
0.0
 10
16.5769894613
 20
12.9214784828
 30
0.0
 10
16.5977946535
 20
12.9702726348
 30
0.0
 10
16.620358245
 20
13.0136300204
 30
0.0
 10
16.644475377
 20
13.0511566019
 30
0.0
 10
16.6699522936
 20
13.082512839
 30
0.0
 10
16.6966034021
 20
13.1074093064
 30
0.0
 10
16.7242734689
 20
13.1255784021
 30
0.0
 10
16.7527647527
 20
13.1367075842
 30
0.0
 10
16.7723112456
 20
13.1392401234
 30
0.0
 10
16.7818010387
 20
13.1392394635
 30
0.0
  0
SPLINE
  5
3C7
100
AcDbEntity
  8
0
100
AcDbSpline
 62
7
  6
BYLAYER
 70
0
 71
3
 72
13
 73
9
 74
0
 42
0.0000001
 43
0.0000001
 44
0.0000000001
 40
0.0
 40
0.0
 40
0.0
 40
0.0
 40
0.2703666341
 40
0.5445113913
 40
0.6725053084
 40
0.7902812471
 40
0.8982226173
 40
1.0
 40
1.0
 40
1.0
 40
1.0
 10
16.5202021139
 20
11.5696210362
 30
0.0
 10
16.5155799022
 20
11.5696210362
 30
0.0
 10
16.5062301922
 20
11.5674176863
 30
0.0
 10
16.4965120405
 20
11.5607118251
 30
0.0
 10
16.4911179351
 20
11.5535553854
 30
0.0
 10
16.4887592313
 20
11.5479033612
 30
0.0
 10
16.4882167796
 20
11.5422333677
 30
0.0
 10
16.4891778614
 20
11.5386766371
 30
0.0
 10
16.4899468731
 20
11.5371158028
 30
0.0
  0
SPLINE
  5
3C8
100
AcDbEntity
  8
0
100
AcDbSpline
 62
7
  6
BYLAYER
 70
0
 71
3
 72
13
 73
9
 74
0
 42
0.0000001
 43
0.0000001
 44
0.0000000001
 40
0.0
 40
0.0
 40
0.0
 40
0.0
 40
0.2824399525
 40
0.5510910717
 40
0.6746030357
 40
0.7894596294
 40
0.8968898982
 40
1.0
 40
1.0
 40
1.0
 40
1.0
 10
15.4971133666
 20
11.5680144703
 30
0.0
 10
15.4934084264
 20
11.5668286548
 30
0.0
 10
15.4865137445
 20
11.5633338613
 30
0.0
 10
15.4798035591
 20
11.5566099712
 30
0.0
 10
15.4765101558
 20
11.5503974311
 30
0.0
 10
15.4752671639
 20
11.545749259
 30
0.0
 10
15.4752784413
 20
11.5412111504
 30
0.0
 10
15.4761521279
 20
11.5383897243
 30
0.0
 10
15.4767797797
 20
11.5371158028
 30
0.0
  0
SPLINE
  5
3C9
100
AcDbEntity
  8
0
100
AcDbSpline
 62
7
  6
BYLAYER
 70
0
 71
3
 72
25
 73
21
 74
0
 42
0.0000001
 43
0.0000001
 44
0.0000000001
 40
0.0
 40
0.0
 40
0.0
 40
0.0
 40
0.1324358839
 40
0.201107473
 40
0.2706286983
 40
0.3403996066
 40
0.4098084894
 40
0.4782607669
 40
0.5452083382
 40
0.6101794625
 40
0.6728098088
 40
0.732874146
 40
0.790317267
 40
0.8452810535
 40
0.8719590573
 40
0.8981682725
 40
0.9239853216
 40
0.9494977037
 40
0.9748017424
 40
1.0
 40
1.0
 40
1.0
 40
1.0
 10
17.6069243998
 20
14.17287151
 30
0.0
 10
17.5550095685
 20
14.17287151
 30
0.0
 10
17.4759162399
 20
14.1635377267
 30
0.0
 10
17.3735403986
 20
14.1353598482
 30
0.0
 10
17.2973265481
 20
14.1060107816
 30
0.0
 10
17.2240975007
 20
14.0692548692
 30
0.0
 10
17.1551503575
 20
14.0257516259
 30
0.0
 10
17.0917400011
 20
13.9762864355
 30
0.0
 10
17.0350125836
 20
13.9217480518
 30
0.0
 10
16.9859981814
 20
13.8631120681
 30
0.0
 10
16.945590852
 20
13.8014243929
 30
0.0
 10
16.9145382199
 20
13.7377755624
 30
0.0
 10
16.8934336515
 20
13.6733079569
 30
0.0
 10
16.8844104725
 20
13.6192844269
 30
0.0
 10
16.8826729586
 20
13.5769993466
 30
0.0
 10
16.8840373559
 20
13.5461374949
 30
0.0
 10
16.8880546876
 20
13.5159685522
 30
0.0
 10
16.8947080832
 20
13.4866305353
 30
0.0
 10
16.9039667604
 20
13.4582645946
 30
0.0
 10
16.9118568787
 20
13.4400704413
 30
0.0
 10
16.9162085987
 20
13.4312029899
 30
0.0
  0
SPLINE
  5
3CA
100
AcDbEntity
  8
0
100
AcDbSpline
 62
7
  6
BYLAYER
 70
0
 71
3
 72
19
 73
15
 74
0
 42
0.0000001
 43
0.0000001
 44
0.0000000001
 40
0.0
 40
0.0
 40
0.0
 40
0.0
 40
0.141333172
 40
0.2776060354
 40
0.3438002136
 40
0.4086758455
 40
0.4722549558
 40
0.5345801986
 40
0.6556690064
 40
0.7727914682
 40
0.8302457751
 40
0.8871457123
 40
0.9436683701
 40
1.0
 40
1.0
 40
1.0
 40
1.0
 10
17.6069243998
 20
14.17287151
 30
0.0
 10
17.6291784827
 20
14.17287151
 30
0.0
 10
17.6729273613
 20
14.1706502674
 30
0.0
 10
17.7264843086
 20
14.1619334584
 30
0.0
 10
17.7672750528
 20
14.1514405281
 30
0.0
 10
17.7964452676
 20
14.1419674726
 30
0.0
 10
17.8243768852
 20
14.1308494545
 30
0.0
 10
17.85948094
 20
14.1140536799
 30
0.0
 10
17.8999608907
 20
14.0892078486
 30
0.0
 10
17.9356675915
 20
14.059015778
 30
0.0
 10
17.9604766663
 20
14.0322673151
 30
0.0
 10
17.9771186364
 20
14.0110846812
 30
0.0
 10
17.9918414107
 20
13.9887403488
 30
0.0
 10
18.0003481048
 20
13.9731105172
 30
0.0
 10
18.004255817
 20
13.9651478155
 30
0.0
  0
SPLINE
  5
3CB
100
AcDbEntity
  8
02___PRT_ALL_AXES
100
AcDbSpline
 62
7
  6
BYLAYER
 70
0
 71
3
 72
18
 73
14
 74
0
 42
0.0000001
 43
0.0000001
 44
0.0000000001
 40
0.0
 40
0.0
 40
0.0
 40
0.0
 40
0.1325554506
 40
0.2706978984
 40
0.4098335297
 40
0.545172286
 40
0.672670422
 40
0.7327889014
 40
0.7902840082
 40
0.8452976361
 40
0.8981846984
 40
0.9495078044
 40
1.0
 40
1.0
 40
1.0
 40
1.0
 10
17.8097807384
 20
13.5213200592
 30
0.0
 10
17.8135500608
 20
13.5213200592
 30
0.0
 10
17.8212654818
 20
13.5222304419
 30
0.0
 10
17.8323926621
 20
13.525921905
 30
0.0
 10
17.8426808006
 20
13.5317187831
 30
0.0
 10
17.8514067541
 20
13.5392183237
 30
0.0
 10
17.8569874827
 20
13.5466287158
 30
0.0
 10
17.8600521561
 20
13.5529091265
 30
0.0
 10
17.8615848257
 20
13.5575907289
 30
0.0
 10
17.8623636209
 20
13.5622485398
 30
0.0
 10
17.8623691158
 20
13.5667985782
 30
0.0
 10
17.8615966237
 20
13.5711528008
 30
0.0
 10
17.8605650497
 20
13.5738795092
 30
0.0
 10
17.859932691
 20
13.5751685422
 30
0.0
  0
SPLINE
  5
3CC
100
AcDbEntity
  8
02___PRT_ALL_AXES
100
AcDbSpline
 62
7
  6
BYLAYER
 70
0
 71
3
 72
21
 73
17
 74
0
 42
0.0000001
 43
0.0000001
 44
0.0000000001
 40
0.0
 40
0.0
 40
0.0
 40
0.0
 40
0.0533394179
 40
0.1094591246
 40
0.1690662237
 40
0.2323153903
 40
0.3677248548
 40
0.4386062676
 40
0.5100561976
 40
0.5809159487
 40
0.6500790287
 40
0.7793548491
 40
0.8388927127
 40
0.8949536638
 40
0.948249955
 40
1.0
 40
1.0
 40
1.0
 40
1.0
 10
17.4852406423
 20
13.3300466318
 30
0.0
 10
17.4865625527
 20
13.3285216007
 30
0.0
 10
17.4896843779
 20
13.3257284499
 30
0.0
 10
17.4953378848
 20
13.3226368197
 30
0.0
 10
17.5018529643
 20
13.3206383416
 30
0.0
 10
17.5115966396
 20
13.3194796696
 30
0.0
 10
17.5218936003
 20
13.3207657402
 30
0.0
 10
17.5318707062
 20
13.324124982
 30
0.0
 10
17.5391310814
 20
13.3276979906
 30
0.0
 10
17.5458004212
 20
13.3321675888
 30
0.0
 10
17.5534245556
 20
13.338953312
 30
0.0
 10
17.559304595
 20
13.3470009942
 30
0.0
 10
17.5625625134
 20
13.355728697
 30
0.0
 10
17.5635484382
 20
13.3620949423
 30
0.0
 10
17.563084042
 20
13.3682293
 30
0.0
 10
17.5617922009
 20
13.3720422632
 30
0.0
 10
17.5609297497
 20
13.373800166
 30
0.0
  0
SPLINE
  5
3CD
100
AcDbEntity
  8
02___PRT_ALL_AXES
100
AcDbSpline
 62
7
  6
BYLAYER
 70
0
 71
3
 72
11
 73
7
 74
0
 42
0.0000001
 43
0.0000001
 44
0.0000000001
 40
0.0
 40
0.0
 40
0.0
 40
0.0
 40
0.2644202521
 40
0.5170856368
 40
0.7609150129
 40
1.0
 40
1.0
 40
1.0
 40
1.0
 10
17.227104312
 20
13.3544180457
 30
0.0
 10
17.2276210584
 20
13.3560902375
 30
0.0
 10
17.2283779861
 20
13.359447377
 30
0.0
 10
17.2286058424
 20
13.3645068659
 30
0.0
 10
17.2278866936
 20
13.3693535623
 30
0.0
 10
17.2267756589
 20
13.3723793832
 30
0.0
 10
17.2260786675
 20
13.373800147
 30
0.0
  0
SPLINE
  5
3CE
100
AcDbEntity
  8
02___PRT_ALL_AXES
100
AcDbSpline
 62
7
  6
BYLAYER
 70
0
 71
3
 72
14
 73
10
 74
0
 42
0.0000001
 43
0.0000001
 44
0.0000000001
 40
0.0
 40
0.0
 40
0.0
 40
0.0
 40
0.2847983612
 40
0.4197453322
 40
0.5479667608
 40
0.6691315371
 40
0.7837546752
 40
0.8932813447
 40
1.0
 40
1.0
 40
1.0
 40
1.0
 10
17.0331550825
 20
13.5314150294
 30
0.0
 10
17.0372120642
 20
13.5341472694
 30
0.0
 10
17.0427449199
 20
13.5389445986
 30
0.0
 10
17.0483978284
 20
13.5465020839
 30
0.0
 10
17.0515008502
 20
13.5523629691
 30
0.0
 10
17.0534383393
 20
13.5583434208
 30
0.0
 10
17.0541416369
 20
13.5642752985
 30
0.0
 10
17.0535733304
 20
13.5699762027
 30
0.0
 10
17.0523379876
 20
13.5735230496
 30
0.0
 10
17.0515307608
 20
13.5751685424
 30
0.0
  0
SPLINE
  5
3CF
100
AcDbEntity
  8
02___PRT_ALL_AXES
100
AcDbSpline
 62
7
  6
BYLAYER
 70
0
 71
3
 72
18
 73
14
 74
0
 42
0.0000001
 43
0.0000001
 44
0.0000000001
 40
0.0
 40
0.0
 40
0.0
 40
0.0
 40
0.1325554506
 40
0.2706978984
 40
0.4098335297
 40
0.545172286
 40
0.672670422
 40
0.7327889014
 40
0.7902840082
 40
0.8452976361
 40
0.8981846984
 40
0.9495078044
 40
1.0
 40
1.0
 40
1.0
 40
1.0
 10
17.0893818408
 20
13.8060979782
 30
0.0
 10
17.0931511632
 20
13.8060979782
 30
0.0
 10
17.1008665842
 20
13.8070083609
 30
0.0
 10
17.1119937645
 20
13.8106998239
 30
0.0
 10
17.122281903
 20
13.816496702
 30
0.0
 10
17.1310078565
 20
13.8239962426
 30
0.0
 10
17.1365885851
 20
13.8314066347
 30
0.0
 10
17.1396532585
 20
13.8376870455
 30
0.0
 10
17.1411859281
 20
13.8423686479
 30
0.0
 10
17.1419647233
 20
13.8470264587
 30
0.0
 10
17.1419702182
 20
13.8515764971
 30
0.0
 10
17.1411977261
 20
13.8559307198
 30
0.0
 10
17.1401661521
 20
13.8586574281
 30
0.0
 10
17.1395337934
 20
13.8599464612
 30
0.0
  0
SPLINE
  5
3D0
100
AcDbEntity
  8
02___PRT_ALL_AXES
100
AcDbSpline
 62
7
  6
BYLAYER
 70
0
 71
3
 72
21
 73
17
 74
0
 42
0.0000001
 43
0.0000001
 44
0.0000000001
 40
0.0
 40
0.0
 40
0.0
 40
0.0
 40
0.0533394179
 40
0.1094591246
 40
0.1690662237
 40
0.2323153903
 40
0.3677248548
 40
0.4386062676
 40
0.5100561976
 40
0.5809159487
 40
0.6500790287
 40
0.7793548491
 40
0.8388927127
 40
0.8949536638
 40
0.948249955
 40
1.0
 40
1.0
 40
1.0
 40
1.0
 10
17.3628477145
 20
14.0175613459
 30
0.0
 10
17.3641696249
 20
14.0160363148
 30
0.0
 10
17.36729145
 20
14.013243164
 30
0.0
 10
17.372944957
 20
14.0101515338
 30
0.0
 10
17.3794600365
 20
14.0081530558
 30
0.0
 10
17.3892037118
 20
14.0069943837
 30
0.0
 10
17.3995006725
 20
14.0082804543
 30
0.0
 10
17.4094777783
 20
14.0116396961
 30
0.0
 10
17.4167381535
 20
14.0152127047
 30
0.0
 10
17.4234074934
 20
14.0196823029
 30
0.0
 10
17.4310316278
 20
14.0264680261
 30
0.0
 10
17.4369116671
 20
14.0345157083
 30
0.0
 10
17.4401695856
 20
14.0432434111
 30
0.0
 10
17.4411555104
 20
14.0496096565
 30
0.0
 10
17.4406911141
 20
14.0557440141
 30
0.0
 10
17.439399273
 20
14.0595569773
 30
0.0
 10
17.4385368218
 20
14.0613148801
 30
0.0
  0
SPLINE
  5
3D1
100
AcDbEntity
  8
02___PRT_ALL_AXES
100
AcDbSpline
 62
7
  6
BYLAYER
 70
0
 71
3
 72
11
 73
7
 74
0
 42
0.0000001
 43
0.0000001
 44
0.0000000001
 40
0.0
 40
0.0
 40
0.0
 40
0.0
 40
0.2644202521
 40
0.5170856368
 40
0.7609150129
 40
1.0
 40
1.0
 40
1.0
 40
1.0
 10
17.7744134711
 20
14.0419327598
 30
0.0
 10
17.7749302175
 20
14.0436049516
 30
0.0
 10
17.7756871452
 20
14.0469620911
 30
0.0
 10
17.7759150015
 20
14.05202158
 30
0.0
 10
17.7751958527
 20
14.0568682765
 30
0.0
 10
17.774084818
 20
14.0598940973
 30
0.0
 10
17.7733878266
 20
14.0613148611
 30
0.0
  0
SPLINE
  5
3D2
100
AcDbEntity
  8
02___PRT_ALL_AXES
100
AcDbSpline
 62
7
  6
BYLAYER
 70
0
 71
3
 72
14
 73
10
 74
0
 42
0.0000001
 43
0.0000001
 44
0.0000000001
 40
0.0
 40
0.0
 40
0.0
 40
0.0
 40
0.2847983612
 40
0.4197453322
 40
0.5479667608
 40
0.6691315371
 40
0.7837546752
 40
0.8932813447
 40
1.0
 40
1.0
 40
1.0
 40
1.0
 10
17.9295600459
 20
13.8161929483
 30
0.0
 10
17.9336170277
 20
13.8189251883
 30
0.0
 10
17.9391498833
 20
13.8237225175
 30
0.0
 10
17.9448027918
 20
13.8312800028
 30
0.0
 10
17.9479058136
 20
13.837140888
 30
0.0
 10
17.9498433028
 20
13.8431213397
 30
0.0
 10
17.9505466003
 20
13.8490532174
 30
0.0
 10
17.9499782938
 20
13.8547541217
 30
0.0
 10
17.948742951
 20
13.8583009686
 30
0.0
 10
17.9479357242
 20
13.8599464613
 30
0.0
  0
SPLINE
  5
3D3
100
AcDbEntity
  8
0
100
AcDbSpline
 62
7
  6
BYLAYER
 70
0
 71
3
 72
14
 73
10
 74
0
 42
0.0000001
 43
0.0000001
 44
0.0000000001
 40
0.0
 40
0.0
 40
0.0
 40
0.0
 40
0.2765277985
 40
0.4076036783
 40
0.5337392094
 40
0.6552717112
 40
0.7728364907
 40
0.8873571066
 40
1.0
 40
1.0
 40
1.0
 40
1.0
 10
17.3876123108
 20
13.4631773298
 30
0.0
 10
17.3669937948
 20
13.4631773298
 30
0.0
 10
17.3364365042
 20
13.4660746232
 30
0.0
 10
17.2979726343
 20
13.4765653623
 30
0.0
 10
17.2717595357
 20
13.4872820115
 30
0.0
 10
17.248051803
 20
13.5008509672
 30
0.0
 10
17.2271708466
 20
13.5171062303
 30
0.0
 10
17.2094198949
 20
13.5358300805
 30
0.0
 10
17.1997930304
 20
13.5498693838
 30
0.0
 10
17.195617148
 20
13.5571566004
 30
0.0
  0
SPLINE
  5
3D4
100
AcDbEntity
  8
0
100
AcDbSpline
 62
7
  6
BYLAYER
 70
0
 71
3
 72
22
 73
18
 74
0
 42
0.0000001
 43
0.0000001
 44
0.0000000001
 40
0.0
 40
0.0
 40
0.0
 40
0.0
 40
0.0504261149
 40
0.101904448
 40
0.1550895192
 40
0.2104626879
 40
0.2683075549
 40
0.3287112335
 40
0.3915820675
 40
0.4566757826
 40
0.5236239241
 40
0.591962781
 40
0.6611616467
 40
0.7306499599
 40
0.7998440712
 40
0.8681737357
 40
1.0
 40
1.0
 40
1.0
 40
1.0
 10
17.733679276
 20
13.8211960747
 30
0.0
 10
17.7373531461
 20
13.8123094565
 30
0.0
 10
17.7431249047
 20
13.7936199997
 30
0.0
 10
17.7466763937
 20
13.7641142622
 30
0.0
 10
17.7451497472
 20
13.7334955976
 30
0.0
 10
17.7386010765
 20
13.702324075
 30
0.0
 10
17.7271752424
 20
13.671137222
 30
0.0
 10
17.7110908754
 20
13.6404685135
 30
0.0
 10
17.6906395569
 20
13.6108388091
 30
0.0
 10
17.6661819328
 20
13.5827529095
 30
0.0
 10
17.6381449239
 20
13.5566909856
 30
0.0
 10
17.6070161331
 20
13.5331004015
 30
0.0
 10
17.5733345738
 20
13.5123877538
 30
0.0
 10
17.537687721
 20
13.4949114669
 30
0.0
 10
17.5006806668
 20
13.4809720875
 30
0.0
 10
17.4510414471
 20
13.4675982676
 30
0.0
 10
17.4127511504
 20
13.4631773298
 30
0.0
 10
17.3876123108
 20
13.4631773298
 30
0.0
  0
SPLINE
  5
3D5
100
AcDbEntity
  8
0
100
AcDbSpline
 62
7
  6
BYLAYER
 70
0
 71
3
 72
21
 73
17
 74
0
 42
0.0000001
 43
0.0000001
 44
0.0000000001
 40
0.0
 40
0.0
 40
0.0
 40
0.0
 40
0.1707394537
 40
0.3285173672
 40
0.4022815864
 40
0.4725200151
 40
0.5392011998
 40
0.6023334796
 40
0.6619710315
 40
0.7182229501
 40
0.7712629998
 40
0.8213387181
 40
0.8687820039
 40
0.9140162386
 40
0.957556362
 40
1.0
 40
1.0
 40
1.0
 40
1.0
 10
17.1138204024
 20
12.7585307973
 30
0.0
 10
17.1186897649
 20
12.7742880604
 30
0.0
 10
17.1289726065
 20
12.8043357687
 30
0.0
 10
17.1441713036
 20
12.8401458594
 30
0.0
 10
17.1572918855
 20
12.8661866425
 30
0.0
 10
17.1672992956
 20
12.8839166501
 30
0.0
 10
17.17766591
 20
12.9002359429
 30
0.0
 10
17.1883629083
 20
12.9150979396
 30
0.0
 10
17.1993608717
 20
12.9284599694
 30
0.0
 10
17.2106303074
 20
12.9402833714
 30
0.0
 10
17.2221413596
 20
12.9505335398
 30
0.0
 10
17.2338645908
 20
12.959178798
 30
0.0
 10
17.2457695769
 20
12.966190115
 30
0.0
 10
17.257825276
 20
12.9715411543
 30
0.0
 10
17.2699935843
 20
12.9752073253
 30
0.0
 10
17.2782247537
 20
12.9765258347
 30
0.0
 10
17.2823083092
 20
12.9768906613
 30
0.0
  0
SPLINE
  5
3D6
100
AcDbEntity
  8
0
100
AcDbSpline
 62
7
  6
BYLAYER
 70
0
 71
3
 72
15
 73
11
 74
0
 42
0.0000001
 43
0.0000001
 44
0.0000000001
 40
0.0
 40
0.0
 40
0.0
 40
0.0
 40
0.111447339
 40
0.2284841374
 40
0.3503292288
 40
0.4761237205
 40
0.6049551833
 40
0.7358689216
 40
0.8678827402
 40
1.0
 40
1.0
 40
1.0
 40
1.0
 10
17.1138204024
 20
12.7585307973
 30
0.0
 10
17.1092934921
 20
12.7438817103
 30
0.0
 10
17.1008516548
 20
12.7135848785
 30
0.0
 10
17.090195407
 20
12.6665637444
 30
0.0
 10
17.0813034773
 20
12.6171707588
 30
0.0
 10
17.0742562456
 20
12.5658444717
 30
0.0
 10
17.0691167548
 20
12.5130394153
 30
0.0
 10
17.0659312661
 20
12.4592238331
 30
0.0
 10
17.0647283863
 20
12.4048763897
 30
0.0
 10
17.0652565593
 20
12.3685321415
 30
0.0
 10
17.0658569287
 20
12.3503657503
 30
0.0
  0
SPLINE
  5
3D7
100
AcDbEntity
  8
02___PRT_ALL_AXES
100
AcDbSpline
 62
7
  6
BYLAYER
 70
0
 71
3
 72
13
 73
9
 74
0
 42
0.0000001
 43
0.0000001
 44
0.0000000001
 40
0.0
 40
0.0
 40
0.0
 40
0.0
 40
0.315400522
 40
0.5810589302
 40
0.6971077941
 40
0.8038551287
 40
0.9037565427
 40
1.0
 40
1.0
 40
1.0
 40
1.0
 10
18.1037657687
 20
12.878283489
 30
0.0
 10
18.1044603511
 20
12.876868079
 30
0.0
 10
18.1059014456
 20
12.8743336814
 30
0.0
 10
18.1081626978
 20
12.8716389244
 30
0.0
 10
18.1100879364
 20
12.8701233237
 30
0.0
 10
18.1115056178
 20
12.8693365517
 30
0.0
 10
18.1129521089
 20
12.8688577793
 30
0.0
 10
18.1139356535
 20
12.868749926
 30
0.0
 10
18.1144167637
 20
12.8687499338
 30
0.0
  0
SPLINE
  5
3D8
100
AcDbEntity
  8
02___PRT_ALL_AXES
100
AcDbSpline
 62
7
  6
BYLAYER
 70
0
 71
3
 72
27
 73
23
 74
0
 42
0.0000001
 43
0.0000001
 44
0.0000000001
 40
0.0
 40
0.0
 40
0.0
 40
0.0
 40
0.0365543145
 40
0.0577236384
 40
0.0811775824
 40
0.1070411492
 40
0.1353331506
 40
0.1988579178
 40
0.2706300455
 40
0.3488380637
 40
0.4312678551
 40
0.5154690607
 40
0.5988969118
 40
0.6790476185
 40
0.753596068
 40
0.8205494401
 40
0.8784468499
 40
0.9266705119
 40
0.9473839634
 40
0.9661578409
 40
0.9834724891
 40
1.0
 40
1.0
 40
1.0
 40
1.0
 10
18.0036114914
 20
12.6042359296
 30
0.0
 10
18.002458658
 20
12.6038951694
 30
0.0
 10
18.000767754
 20
12.60290265
 30
0.0
 10
17.9988386658
 20
12.6010563049
 30
0.0
 10
17.9973796279
 20
12.5992456489
 30
0.0
 10
17.9959979072
 20
12.5970956355
 30
0.0
 10
17.9941996366
 20
12.5936639212
 30
0.0
 10
17.9922579145
 20
12.5886284086
 30
0.0
 10
17.990464538
 20
12.5818293731
 30
0.0
 10
17.989190173
 20
12.5742837303
 30
0.0
 10
17.9884810708
 20
12.5662554831
 30
0.0
 10
17.9883634542
 20
12.5580254478
 30
0.0
 10
17.9888416178
 20
12.5498834434
 30
0.0
 10
17.9898979986
 20
12.5421153011
 30
0.0
 10
17.9914935251
 20
12.5349926003
 30
0.0
 10
17.99357189
 20
12.5287571486
 30
0.0
 10
17.9960593995
 20
12.523618965
 30
0.0
 10
17.9985355045
 20
12.5202117508
 30
0.0
 10
18.0006903979
 20
12.5182781003
 30
0.0
 10
18.0022797458
 20
12.5172759279
 30
0.0
 10
18.0039121651
 20
12.5166631443
 30
0.0
 10
18.0050294176
 20
12.5165243889
 30
0.0
 10
18.0055729482
 20
12.5165246376
 30
0.0
  0
SPLINE
  5
3D9
100
AcDbEntity
  8
02___PRT_ALL_AXES
100
AcDbSpline
 62
7
  6
BYLAYER
 70
0
 71
3
 72
19
 73
15
 74
0
 42
0.0000001
 43
0.0000001
 44
0.0000000001
 40
0.0
 40
0.0
 40
0.0
 40
0.0
 40
0.1393866796
 40
0.2927780429
 40
0.4502723744
 40
0.601482691
 40
0.6716960273
 40
0.7368633404
 40
0.7961296553
 40
0.8488964717
 40
0.89493011
 40
0.934536435
 40
0.9688288018
 40
1.0
 40
1.0
 40
1.0
 40
1.0
 10
18.0121722329
 20
12.1411719048
 30
0.0
 10
18.0111023062
 20
12.1377096208
 30
0.0
 10
18.009467068
 20
12.1302451728
 30
0.0
 10
18.0083425499
 20
12.1185714382
 30
0.0
 10
18.0084779806
 20
12.1065361664
 30
0.0
 10
18.0096561118
 20
12.096730088
 30
0.0
 10
18.0112618107
 20
12.089448858
 30
0.0
 10
18.0127117692
 20
12.084594954
 30
0.0
 10
18.0144079564
 20
12.0803042764
 30
0.0
 10
18.0163194222
 20
12.0766554811
 30
0.0
 10
18.0184145423
 20
12.0737123371
 30
0.0
 10
18.020669754
 20
12.0715255186
 30
0.0
 10
18.0230702112
 20
12.0701468668
 30
0.0
 10
18.024783527
 20
12.0698210937
 30
0.0
 10
18.0255939284
 20
12.0698210664
 30
0.0
  0
SPLINE
  5
3DA
100
AcDbEntity
  8
02___PRT_ALL_AXES
100
AcDbSpline
 62
7
  6
BYLAYER
 70
0
 71
3
 72
17
 73
13
 74
0
 42
0.0000001
 43
0.0000001
 44
0.0000000001
 40
0.0
 40
0.0
 40
0.0
 40
0.0
 40
0.1734341554
 40
0.338959186
 40
0.4922122091
 40
0.6294928998
 40
0.748190817
 40
0.8473818977
 40
0.8902154088
 40
0.9292258956
 40
0.9653836888
 40
1.0
 40
1.0
 40
1.0
 40
1.0
 10
18.1457350634
 20
11.8292808082
 30
0.0
 10
18.1458523153
 20
11.8266650084
 30
0.0
 10
18.1462610137
 20
11.8215585781
 30
0.0
 10
18.1474113722
 20
11.8142092917
 30
0.0
 10
18.1490510511
 20
11.8075123338
 30
0.0
 10
18.1511270956
 20
11.8016779496
 30
0.0
 10
18.1535718714
 20
11.7968871461
 30
0.0
 10
18.1559792487
 20
11.7937246
 30
0.0
 10
18.1580583881
 20
11.7919351276
 30
0.0
 10
18.1595909503
 20
11.7910073372
 30
0.0
 10
18.1611612626
 20
11.7904406431
 30
0.0
 10
18.1622335807
 20
11.7903123968
 30
0.0
 10
18.1627562013
 20
11.7903122939
 30
0.0
  0
SPLINE
  5
3DB
100
AcDbEntity
  8
02___PRT_ALL_AXES
100
AcDbSpline
 62
7
  6
BYLAYER
 70
0
 71
3
 72
13
 73
9
 74
0
 42
0.0000001
 43
0.0000001
 44
0.0000000001
 40
0.0
 40
0.0
 40
0.0
 40
0.0
 40
0.315400522
 40
0.5810589302
 40
0.6971077941
 40
0.8038551287
 40
0.9037565427
 40
1.0
 40
1.0
 40
1.0
 40
1.0
 10
18.3260606884
 20
11.8512642141
 30
0.0
 10
18.3267552707
 20
11.8498488041
 30
0.0
 10
18.3281963653
 20
11.8473144065
 30
0.0
 10
18.3304576175
 20
11.8446196495
 30
0.0
 10
18.3323828561
 20
11.8431040488
 30
0.0
 10
18.3338005374
 20
11.8423172768
 30
0.0
 10
18.3352470285
 20
11.8418385044
 30
0.0
 10
18.3362305731
 20
11.8417306511
 30
0.0
 10
18.3367116833
 20
11.8417306589
 30
0.0
  0
SPLINE
  5
3DC
100
AcDbEntity
  8
02___PRT_ALL_AXES
100
AcDbSpline
 62
7
  6
BYLAYER
 70
0
 71
3
 72
27
 73
23
 74
0
 42
0.0000001
 43
0.0000001
 44
0.0000000001
 40
0.0
 40
0.0
 40
0.0
 40
0.0
 40
0.0365543145
 40
0.0577236384
 40
0.0811775824
 40
0.1070411492
 40
0.1353331506
 40
0.1988579178
 40
0.2706300455
 40
0.3488380637
 40
0.4312678551
 40
0.5154690607
 40
0.5988969118
 40
0.6790476185
 40
0.753596068
 40
0.8205494401
 40
0.8784468499
 40
0.9266705119
 40
0.9473839634
 40
0.9661578409
 40
0.9834724891
 40
1.0
 40
1.0
 40
1.0
 40
1.0
 10
18.443598124
 20
12.2816672962
 30
0.0
 10
18.4424452907
 20
12.2813265361
 30
0.0
 10
18.4407543867
 20
12.2803340166
 30
0.0
 10
18.4388252985
 20
12.2784876716
 30
0.0
 10
18.4373662605
 20
12.2766770156
 30
0.0
 10
18.4359845399
 20
12.2745270022
 30
0.0
 10
18.4341862692
 20
12.2710952878
 30
0.0
 10
18.4322445472
 20
12.2660597752
 30
0.0
 10
18.4304511706
 20
12.2592607398
 30
0.0
 10
18.4291768056
 20
12.251715097
 30
0.0
 10
18.4284677035
 20
12.2436868498
 30
0.0
 10
18.4283500869
 20
12.2354568144
 30
0.0
 10
18.4288282505
 20
12.22731481
 30
0.0
 10
18.4298846313
 20
12.2195466678
 30
0.0
 10
18.4314801577
 20
12.2124239669
 30
0.0
 10
18.4335585227
 20
12.2061885152
 30
0.0
 10
18.4360460321
 20
12.2010503317
 30
0.0
 10
18.4385221371
 20
12.1976431175
 30
0.0
 10
18.4406770306
 20
12.195709467
 30
0.0
 10
18.4422663785
 20
12.1947072946
 30
0.0
 10
18.4438987977
 20
12.194094511
 30
0.0
 10
18.4450160502
 20
12.1939557556
 30
0.0
 10
18.4455595809
 20
12.1939560042
 30
0.0
  0
SPLINE
  5
3DD
100
AcDbEntity
  8
02___PRT_ALL_AXES
100
AcDbSpline
 62
7
  6
BYLAYER
 70
0
 71
3
 72
19
 73
15
 74
0
 42
0.0000001
 43
0.0000001
 44
0.0000000001
 40
0.0
 40
0.0
 40
0.0
 40
0.0
 40
0.1393866796
 40
0.2927780429
 40
0.4502723744
 40
0.601482691
 40
0.6716960273
 40
0.7368633404
 40
0.7961296553
 40
0.8488964717
 40
0.89493011
 40
0.934536435
 40
0.9688288018
 40
1.0
 40
1.0
 40
1.0
 40
1.0
 10
18.4121123764
 20
12.7120102436
 30
0.0
 10
18.4110424497
 20
12.7085479596
 30
0.0
 10
18.4094072115
 20
12.7010835117
 30
0.0
 10
18.4082826934
 20
12.689409777
 30
0.0
 10
18.4084181241
 20
12.6773745052
 30
0.0
 10
18.4095962554
 20
12.6675684269
 30
0.0
 10
18.4112019542
 20
12.6602871968
 30
0.0
 10
18.4126519128
 20
12.6554332929
 30
0.0
 10
18.4143480999
 20
12.6511426152
 30
0.0
 10
18.4162595658
 20
12.6474938199
 30
0.0
 10
18.4183546859
 20
12.6445506759
 30
0.0
 10
18.4206098975
 20
12.6423638574
 30
0.0
 10
18.4230103547
 20
12.6409852056
 30
0.0
 10
18.4247236706
 20
12.6406594325
 30
0.0
 10
18.425534072
 20
12.6406594053
 30
0.0
  0
SPLINE
  5
3DE
100
AcDbEntity
  8
02___PRT_ALL_AXES
100
AcDbSpline
 62
7
  6
BYLAYER
 70
0
 71
3
 72
17
 73
13
 74
0
 42
0.0000001
 43
0.0000001
 44
0.0000000001
 40
0.0
 40
0.0
 40
0.0
 40
0.0
 40
0.1734341554
 40
0.338959186
 40
0.4922122091
 40
0.6294928998
 40
0.748190817
 40
0.8473818977
 40
0.8902154088
 40
0.9292258956
 40
0.9653836888
 40
1.0
 40
1.0
 40
1.0
 40
1.0
 10
18.2713492059
 20
12.9591367622
 30
0.0
 10
18.2714664577
 20
12.9565209624
 30
0.0
 10
18.2718751562
 20
12.9514145321
 30
0.0
 10
18.2730255147
 20
12.9440652457
 30
0.0
 10
18.2746651935
 20
12.9373682878
 30
0.0
 10
18.2767412381
 20
12.9315339036
 30
0.0
 10
18.2791860138
 20
12.9267431001
 30
0.0
 10
18.2815933912
 20
12.923580554
 30
0.0
 10
18.2836725306
 20
12.9217910816
 30
0.0
 10
18.2852050927
 20
12.9208632912
 30
0.0
 10
18.2867754051
 20
12.9202965971
 30
0.0
 10
18.2878477232
 20
12.9201683508
 30
0.0
 10
18.2883703437
 20
12.9201682479
 30
0.0
  0
SPLINE
  5
3DF
100
AcDbEntity
  8
0
100
AcDbSpline
 62
7
  6
BYLAYER
 70
0
 71
3
 72
15
 73
11
 74
0
 42
0.0000001
 43
0.0000001
 44
0.0000000001
 40
0.0
 40
0.0
 40
0.0
 40
0.0
 40
0.1639879258
 40
0.315433665
 40
0.4543869286
 40
0.5813401534
 40
0.6973096392
 40
0.8039851405
 40
0.9038198887
 40
1.0
 40
1.0
 40
1.0
 40
1.0
 10
18.150160487
 20
12.1552339032
 30
0.0
 10
18.1527188848
 20
12.1500204367
 30
0.0
 10
18.1579692269
 20
12.1401476195
 30
0.0
 10
18.1666274743
 20
12.1265618661
 30
0.0
 10
18.1757070776
 20
12.114867787
 30
0.0
 10
18.1851543569
 20
12.1051451229
 30
0.0
 10
18.1949193816
 20
12.0974640777
 30
0.0
 10
18.2049549747
 20
12.0918930599
 30
0.0
 10
18.2151958354
 20
12.0885044608
 30
0.0
 10
18.2221587759
 20
12.0877401623
 30
0.0
 10
18.225564845
 20
12.0877402376
 30
0.0
  0
SPLINE
  5
3E0
100
AcDbEntity
  8
0
100
AcDbSpline
 62
7
  6
BYLAYER
 70
0
 71
3
 72
19
 73
15
 74
0
 42
0.0000001
 43
0.0000001
 44
0.0000000001
 40
0.0
 40
0.0
 40
0.0
 40
0.0
 40
0.1204175639
 40
0.2519074272
 40
0.3206829122
 40
0.3904336935
 40
0.5293851345
 40
0.6626723595
 40
0.7257395213
 40
0.7858342733
 40
0.8428952529
 40
0.8971718467
 40
0.9492455937
 40
1.0
 40
1.0
 40
1.0
 40
1.0
 10
17.370714186
 20
12.8735286414
 30
0.0
 10
17.370061107
 20
12.8714152772
 30
0.0
 10
17.3679088002
 20
12.8672236429
 30
0.0
 10
17.3638662508
 20
12.8628566313
 30
0.0
 10
17.3599105062
 20
12.8598490317
 30
0.0
 10
17.3555178009
 20
12.8572444441
 30
0.0
 10
17.3496042953
 20
12.854965825
 30
0.0
 10
17.3434344636
 20
12.8541161584
 30
0.0
 10
17.3387196659
 20
12.8544193973
 30
0.0
 10
17.3354687776
 20
12.855111314
 30
0.0
 10
17.3325197386
 20
12.8562578966
 30
0.0
 10
17.3299453565
 20
12.8578363887
 30
0.0
 10
17.3278143314
 20
12.859810962
 30
0.0
 10
17.3267207858
 20
12.8613724193
 30
0.0
 10
17.3262729393
 20
12.8621901284
 30
0.0
  0
SPLINE
  5
3E1
100
AcDbEntity
  8
0
100
AcDbSpline
 62
7
  6
BYLAYER
 70
0
 71
3
 72
22
 73
18
 74
0
 42
0.0000001
 43
0.0000001
 44
0.0000000001
 40
0.0
 40
0.0
 40
0.0
 40
0.0
 40
0.1726685391
 40
0.2539493381
 40
0.3316741629
 40
0.4057410704
 40
0.4760841698
 40
0.542678084
 40
0.6055437131
 40
0.6647580925
 40
0.7204639095
 40
0.7728808776
 40
0.8223183012
 40
0.8691857011
 40
0.9139978696
 40
0.9573703209
 40
1.0
 40
1.0
 40
1.0
 40
1.0
 10
17.8458575231
 20
12.8576775872
 30
0.0
 10
17.8523106284
 20
12.8785598435
 30
0.0
 10
17.8627627564
 20
12.9089959729
 30
0.0
 10
17.8786665022
 20
12.9478602239
 30
0.0
 10
17.8909600426
 20
12.9746899982
 30
0.0
 10
17.9038207293
 20
12.9997063482
 30
0.0
 10
17.9172091977
 20
13.0228317825
 30
0.0
 10
17.9310843723
 20
13.0439945022
 30
0.0
 10
17.9454047632
 20
13.0631289549
 30
0.0
 10
17.9601281033
 20
13.0801758762
 30
0.0
 10
17.9752121555
 20
13.0950818935
 30
0.0
 10
17.9906148782
 20
13.1077987036
 30
0.0
 10
18.006294081
 20
13.1182823402
 30
0.0
 10
18.0222055716
 20
13.1264923517
 30
0.0
 10
18.0383031503
 20
13.1323912187
 30
0.0
 10
18.0545281315
 20
13.1359460598
 30
0.0
 10
18.0654302507
 20
13.1367401974
 30
0.0
 10
18.0708263703
 20
13.1367401634
 30
0.0
  0
SPLINE
  5
3E2
100
AcDbEntity
  8
0
100
AcDbSpline
 62
7
  6
BYLAYER
 70
0
 71
3
 72
34
 73
30
 74
0
 42
0.0000001
 43
0.0000001
 44
0.0000000001
 40
0.0
 40
0.0
 40
0.0
 40
0.0
 40
0.03305408
 40
0.0673899343
 40
0.102882349
 40
0.139398835
 40
0.2149197538
 40
0.2927514709
 40
0.3716143974
 40
0.4110271906
 40
0.4502065662
 40
0.5272116997
 40
0.6013819518
 40
0.6370390667
 40
0.6715585813
 40
0.7048152115
 40
0.7366950967
 40
0.7670978176
 40
0.7959387847
 40
0.8231521618
 40
0.8486945317
 40
0.8725495738
 40
0.8947340777
 40
0.9153055935
 40
0.9343717833
 40
0.9521008175
 40
0.9687305738
 40
0.9845719766
 40
1.0
 40
1.0
 40
1.0
 40
1.0
 10
17.8458575231
 20
12.8576775872
 30
0.0
 10
17.841601929
 20
12.8439064796
 30
0.0
 10
17.8335050058
 20
12.8156485129
 30
0.0
 10
17.8227620901
 20
12.7720813456
 30
0.0
 10
17.8132289073
 20
12.7266894119
 30
0.0
 10
17.8020706203
 20
12.6633227337
 30
0.0
 10
17.7915435744
 20
12.581144971
 30
0.0
 10
17.784424519
 20
12.480085734
 30
0.0
 10
17.7830900226
 20
12.3945345737
 30
0.0
 10
17.7848182113
 20
12.3258886902
 30
0.0
 10
17.7883898101
 20
12.2581251158
 30
0.0
 10
17.7961974962
 20
12.175439874
 30
0.0
 10
17.8086093486
 20
12.0948631271
 30
0.0
 10
17.8212335054
 20
12.0331871755
 30
0.0
 10
17.831796174
 20
11.9893279977
 30
0.0
 10
17.8435242734
 20
11.947473266
 30
0.0
 10
17.8563607672
 20
11.9078263525
 30
0.0
 10
17.8702428335
 20
11.8705797626
 30
0.0
 10
17.8851030593
 20
11.8359136254
 30
0.0
 10
17.9008698677
 20
11.8039948383
 30
0.0
 10
17.9174683599
 20
11.7749761792
 30
0.0
 10
17.9348213376
 20
11.7489956896
 30
0.0
 10
17.952850676
 20
11.7261765175
 30
0.0
 10
17.9714787289
 20
11.7066276639
 30
0.0
 10
17.9906298499
 20
11.6904462538
 30
0.0
 10
18.010228343
 20
11.6777217149
 30
0.0
 10
18.0301972848
 20
11.6685405327
 30
0.0
 10
18.0504322547
 20
11.6629861198
 30
0.0
 10
18.0640978415
 20
11.6617403503
 30
0.0
 10
18.0708254293
 20
11.6617403078
 30
0.0
  0
SPLINE
  5
3E3
100
AcDbEntity
  8
0
100
AcDbSpline
 62
7
  6
BYLAYER
 70
0
 71
3
 72
31
 73
27
 74
0
 42
0.0000001
 43
0.0000001
 44
0.0000000001
 40
0.0
 40
0.0
 40
0.0
 40
0.0
 40
0.0155006603
 40
0.0315033918
 40
0.04845458
 40
0.0667108843
 40
0.0865311865
 40
0.1080853564
 40
0.1314690545
 40
0.1567184171
 40
0.1838223464
 40
0.2127319716
 40
0.2433678205
 40
0.2756252511
 40
0.3444715195
 40
0.4180904414
 40
0.4950891244
 40
0.5739482558
 40
0.6530824723
 40
0.7308966927
 40
0.8058424842
 40
0.8764761864
 40
0.9097770415
 40
0.9415398993
 40
0.9716479459
 40
1.0
 40
1.0
 40
1.0
 40
1.0
 10
18.2255634486
 20
12.7107402335
 30
0.0
 10
18.2224291957
 20
12.7107401642
 30
0.0
 10
18.2160422995
 20
12.7100964344
 30
0.0
 10
18.2066160462
 20
12.7072341102
 30
0.0
 10
18.1973456146
 20
12.7025153494
 30
0.0
 10
18.1882861807
 20
12.6959925083
 30
0.0
 10
18.1794775538
 20
12.687717215
 30
0.0
 10
18.1709605271
 20
12.6777423856
 30
0.0
 10
18.1627769026
 20
12.6661263986
 30
0.0
 10
18.1549698657
 20
12.6529357381
 30
0.0
 10
18.1475826213
 20
12.638246013
 30
0.0
 10
18.1406574918
 20
12.6221421195
 30
0.0
 10
18.134234409
 20
12.60471772
 30
0.0
 10
18.1262173803
 20
12.5793062139
 30
0.0
 10
18.1178121398
 20
12.5449484781
 30
0.0
 10
18.1104327554
 20
12.5011570687
 30
0.0
 10
18.1057328246
 20
12.4549637144
 30
0.0
 10
18.1038257741
 20
12.4074577063
 30
0.0
 10
18.1047582795
 20
12.3597578995
 30
0.0
 10
18.1085075284
 20
12.3129882803
 30
0.0
 10
18.1149827586
 20
12.268252548
 30
0.0
 10
18.122662252
 20
12.2328679171
 30
0.0
 10
18.130129291
 20
12.206457663
 30
0.0
 10
18.1361847619
 20
12.1881837063
 30
0.0
 10
18.1427684811
 20
12.1711618932
 30
0.0
 10
18.1476349346
 20
12.1603804379
 30
0.0
 10
18.150160487
 20
12.1552339032
 30
0.0
  0
SPLINE
  5
3E4
100
AcDbEntity
  8
02___PRT_ALL_AXES
100
AcDbSpline
 62
7
  6
BYLAYER
 70
0
 71
3
 72
15
 73
11
 74
0
 42
0.0000001
 43
0.0000001
 44
0.0000000001
 40
0.0
 40
0.0
 40
0.0
 40
0.0
 40
0.0513942721
 40
0.1033498683
 40
0.2106760257
 40
0.3253248324
 40
0.4485650575
 40
0.5799464275
 40
0.7176743109
 40
1.0
 40
1.0
 40
1.0
 40
1.0
 10
17.8689336549
 20
13.8211822631
 30
0.0
 10
17.8694464662
 20
13.8201369221
 30
0.0
 10
17.8706413355
 20
13.8181105886
 30
0.0
 10
17.8736658231
 20
13.8143988007
 30
0.0
 10
17.878623522
 20
13.810518351
 30
0.0
 10
17.8858916064
 20
13.8074338708
 30
0.0
 10
17.894187173
 20
13.8059530536
 30
0.0
 10
17.9031273415
 20
13.8061212322
 30
0.0
 10
17.9154291258
 20
13.8085222684
 30
0.0
 10
17.9242548236
 20
13.8126200605
 30
0.0
 10
17.9295600459
 20
13.8161929483
 30
0.0
  0
SPLINE
  5
3E5
100
AcDbEntity
  8
02___PRT_ALL_AXES
100
AcDbSpline
 62
7
  6
BYLAYER
 70
0
 71
3
 72
19
 73
15
 74
0
 42
0.0000001
 43
0.0000001
 44
0.0000000001
 40
0.0
 40
0.0
 40
0.0
 40
0.0
 40
0.0507459952
 40
0.1026294472
 40
0.1566080379
 40
0.2133381529
 40
0.335623381
 40
0.4012047648
 40
0.4690057161
 40
0.6081751752
 40
0.7469361473
 40
0.8142544212
 40
0.8792081901
 40
1.0
 40
1.0
 40
1.0
 40
1.0
 10
17.6943857482
 20
14.0225506585
 30
0.0
 10
17.695128253
 20
14.0210371191
 30
0.0
 10
17.696977921
 20
14.0181341484
 30
0.0
 10
17.7006802843
 20
14.0144269493
 30
0.0
 10
17.7052187544
 20
14.0114336922
 30
0.0
 10
17.712385597
 20
14.0084169644
 30
0.0
 10
17.7205719112
 20
14.0072204751
 30
0.0
 10
17.7290664154
 20
14.0076715459
 30
0.0
 10
17.7379992783
 20
14.0092850109
 30
0.0
 10
17.7488591657
 20
14.0133418726
 30
0.0
 10
17.7585280061
 20
14.0197110367
 30
0.0
 10
17.7650490179
 20
14.02595483
 30
0.0
 10
17.7703389803
 20
14.0325030645
 30
0.0
 10
17.7732286779
 20
14.0380987676
 30
0.0
 10
17.7744134711
 20
14.0419327598
 30
0.0
  0
SPLINE
  5
3E6
100
AcDbEntity
  8
02___PRT_ALL_AXES
100
AcDbSpline
 62
7
  6
BYLAYER
 70
0
 71
3
 72
9
 73
5
 74
0
 42
0.0000001
 43
0.0000001
 44
0.0000000001
 40
0.0
 40
0.0
 40
0.0
 40
0.0
 40
0.249055861
 40
1.0
 40
1.0
 40
1.0
 40
1.0
 10
17.359534666
 20
14.0225506394
 30
0.0
 10
17.3597540102
 20
14.0221035581
 30
0.0
 10
17.3606929834
 20
14.0203375109
 30
0.0
 10
17.361864231
 20
14.0186959485
 30
0.0
 10
17.3628477145
 20
14.0175613459
 30
0.0
  0
SPLINE
  5
3E7
100
AcDbEntity
  8
02___PRT_ALL_AXES
100
AcDbSpline
 62
7
  6
BYLAYER
 70
0
 71
3
 72
13
 73
9
 74
0
 42
0.0000001
 43
0.0000001
 44
0.0000000001
 40
0.0
 40
0.0
 40
0.0
 40
0.0
 40
0.112901454
 40
0.2273080665
 40
0.3445816013
 40
0.4658270975
 40
0.7224524585
 40
1.0
 40
1.0
 40
1.0
 40
1.0
 10
17.0605317246
 20
13.8211822632
 30
0.0
 10
17.0610995089
 20
13.8200248619
 30
0.0
 10
17.0624435239
 20
13.8177873967
 30
0.0
 10
17.0650139856
 20
13.8147863103
 30
0.0
 10
17.0681042367
 20
13.8121735261
 30
0.0
 10
17.072938193
 20
13.8092053728
 30
0.0
 10
17.0800885314
 20
13.8067029131
 30
0.0
 10
17.0862126548
 20
13.8060979782
 30
0.0
 10
17.0893818408
 20
13.8060979782
 30
0.0
  0
SPLINE
  5
3E8
100
AcDbEntity
  8
02___PRT_ALL_AXES
100
AcDbSpline
 62
7
  6
BYLAYER
 70
0
 71
3
 72
15
 73
11
 74
0
 42
0.0000001
 43
0.0000001
 44
0.0000000001
 40
0.0
 40
0.0
 40
0.0
 40
0.0
 40
0.0513942721
 40
0.1033498683
 40
0.2106760257
 40
0.3253248324
 40
0.4485650575
 40
0.5799464275
 40
0.7176743109
 40
1.0
 40
1.0
 40
1.0
 40
1.0
 10
16.9725286914
 20
13.5364043442
 30
0.0
 10
16.9730415027
 20
13.5353590032
 30
0.0
 10
16.974236372
 20
13.5333326697
 30
0.0
 10
16.9772608597
 20
13.5296208818
 30
0.0
 10
16.9822185585
 20
13.5257404321
 30
0.0
 10
16.9894866429
 20
13.5226559519
 30
0.0
 10
16.9977822095
 20
13.5211751347
 30
0.0
 10
17.006722378
 20
13.5213433133
 30
0.0
 10
17.0190241624
 20
13.5237443495
 30
0.0
 10
17.0278498602
 20
13.5278421416
 30
0.0
 10
17.0331550825
 20
13.5314150294
 30
0.0
  0
SPLINE
  5
3E9
100
AcDbEntity
  8
02___PRT_ALL_AXES
100
AcDbSpline
 62
7
  6
BYLAYER
 70
0
 71
3
 72
19
 73
15
 74
0
 42
0.0000001
 43
0.0000001
 44
0.0000000001
 40
0.0
 40
0.0
 40
0.0
 40
0.0
 40
0.0507459952
 40
0.1026294472
 40
0.1566080379
 40
0.2133381529
 40
0.335623381
 40
0.4012047648
 40
0.4690057161
 40
0.6081751752
 40
0.7469361473
 40
0.8142544212
 40
0.8792081901
 40
1.0
 40
1.0
 40
1.0
 40
1.0
 10
17.1470765891
 20
13.3350359443
 30
0.0
 10
17.1478190939
 20
13.333522405
 30
0.0
 10
17.1496687619
 20
13.3306194343
 30
0.0
 10
17.1533711252
 20
13.3269122352
 30
0.0
 10
17.1579095953
 20
13.3239189781
 30
0.0
 10
17.1650764379
 20
13.3209022503
 30
0.0
 10
17.1732627521
 20
13.319705761
 30
0.0
 10
17.1817572563
 20
13.3201568318
 30
0.0
 10
17.1906901192
 20
13.3217702968
 30
0.0
 10
17.2015500066
 20
13.3258271585
 30
0.0
 10
17.211218847
 20
13.3321963225
 30
0.0
 10
17.2177398588
 20
13.3384401159
 30
0.0
 10
17.2230298212
 20
13.3449883503
 30
0.0
 10
17.2259195188
 20
13.3505840534
 30
0.0
 10
17.227104312
 20
13.3544180457
 30
0.0
  0
SPLINE
  5
3EA
100
AcDbEntity
  8
02___PRT_ALL_AXES
100
AcDbSpline
 62
7
  6
BYLAYER
 70
0
 71
3
 72
9
 73
5
 74
0
 42
0.0000001
 43
0.0000001
 44
0.0000000001
 40
0.0
 40
0.0
 40
0.0
 40
0.0
 40
0.249055861
 40
1.0
 40
1.0
 40
1.0
 40
1.0
 10
17.4819275938
 20
13.3350359253
 30
0.0
 10
17.4821469381
 20
13.334588844
 30
0.0
 10
17.4830859113
 20
13.3328227968
 30
0.0
 10
17.4842571589
 20
13.3311812343
 30
0.0
 10
17.4852406423
 20
13.3300466318
 30
0.0
  0
SPLINE
  5
3EB
100
AcDbEntity
  8
02___PRT_ALL_AXES
100
AcDbSpline
 62
7
  6
BYLAYER
 70
0
 71
3
 72
13
 73
9
 74
0
 42
0.0000001
 43
0.0000001
 44
0.0000000001
 40
0.0
 40
0.0
 40
0.0
 40
0.0
 40
0.112901454
 40
0.2273080665
 40
0.3445816013
 40
0.4658270975
 40
0.7224524585
 40
1.0
 40
1.0
 40
1.0
 40
1.0
 10
17.7809306222
 20
13.5364043443
 30
0.0
 10
17.7814984065
 20
13.535246943
 30
0.0
 10
17.7828424215
 20
13.5330094778
 30
0.0
 10
17.7854128832
 20
13.5300083914
 30
0.0
 10
17.7885031343
 20
13.5273956072
 30
0.0
 10
17.7933370906
 20
13.5244274539
 30
0.0
 10
17.800487429
 20
13.5219249942
 30
0.0
 10
17.8066115524
 20
13.5213200592
 30
0.0
 10
17.8097807384
 20
13.5213200592
 30
0.0
  0
SPLINE
  5
3EC
100
AcDbEntity
  8
0
100
AcDbSpline
 62
7
  6
BYLAYER
 70
0
 71
3
 72
19
 73
15
 74
0
 42
0.0000001
 43
0.0000001
 44
0.0000000001
 40
0.0
 40
0.0
 40
0.0
 40
0.0
 40
0.0563316299
 40
0.1128542877
 40
0.1697542249
 40
0.2272085318
 40
0.3443309936
 40
0.4654198014
 40
0.5277450442
 40
0.5913241545
 40
0.6561997864
 40
0.7223939646
 40
0.858666828
 40
1.0
 40
1.0
 40
1.0
 40
1.0
 10
16.9619648786
 20
13.3379614947
 30
0.0
 10
16.9658725908
 20
13.329998793
 30
0.0
 10
16.9743792849
 20
13.3143689614
 30
0.0
 10
16.9891020592
 20
13.292024629
 30
0.0
 10
17.0057440294
 20
13.2708419951
 30
0.0
 10
17.0305531042
 20
13.2440935322
 30
0.0
 10
17.0662598049
 20
13.2139014616
 30
0.0
 10
17.1067397556
 20
13.1890556303
 30
0.0
 10
17.1418438105
 20
13.1722598557
 30
0.0
 10
17.169775428
 20
13.1611418376
 30
0.0
 10
17.1989456429
 20
13.1516687821
 30
0.0
 10
17.239736387
 20
13.1411758518
 30
0.0
 10
17.2932933343
 20
13.1324590428
 30
0.0
 10
17.3370422129
 20
13.1302378002
 30
0.0
 10
17.3592962958
 20
13.1302378002
 30
0.0
  0
SPLINE
  5
3ED
100
AcDbEntity
  8
0
100
AcDbSpline
 62
7
  6
BYLAYER
 70
0
 71
3
 72
25
 73
21
 74
0
 42
0.0000001
 43
0.0000001
 44
0.0000000001
 40
0.0
 40
0.0
 40
0.0
 40
0.0
 40
0.0251982576
 40
0.0505022963
 40
0.0760146784
 40
0.1018317275
 40
0.1280409427
 40
0.1547189465
 40
0.209682733
 40
0.267125854
 40
0.3271901912
 40
0.3898205375
 40
0.4547916618
 40
0.5217392331
 40
0.5901915106
 40
0.6596003934
 40
0.7293713017
 40
0.798892527
 40
0.8675641161
 40
1.0
 40
1.0
 40
1.0
 40
1.0
 10
18.050012097
 20
13.8719063203
 30
0.0
 10
18.0543638169
 20
13.8630388689
 30
0.0
 10
18.0622539353
 20
13.8448447156
 30
0.0
 10
18.0715126125
 20
13.8164787749
 30
0.0
 10
18.078166008
 20
13.787140758
 30
0.0
 10
18.0821833397
 20
13.7569718153
 30
0.0
 10
18.0835477371
 20
13.7261099636
 30
0.0
 10
18.0818102231
 20
13.6838248833
 30
0.0
 10
18.0727870441
 20
13.6298013533
 30
0.0
 10
18.0516824758
 20
13.5653337478
 30
0.0
 10
18.0206298436
 20
13.5016849173
 30
0.0
 10
17.9802225142
 20
13.4399972421
 30
0.0
 10
17.931208112
 20
13.3813612584
 30
0.0
 10
17.8744806945
 20
13.3268228747
 30
0.0
 10
17.8110703381
 20
13.2773576843
 30
0.0
 10
17.7421231949
 20
13.233854441
 30
0.0
 10
17.6688941475
 20
13.1970985286
 30
0.0
 10
17.5926802971
 20
13.1677494621
 30
0.0
 10
17.4903044558
 20
13.1395715835
 30
0.0
 10
17.4112111271
 20
13.1302378002
 30
0.0
 10
17.3592962958
 20
13.1302378002
 30
0.0
  0
SPLINE
  5
3EE
100
AcDbEntity
  8
02___PRT_ALL_AXES
100
AcDbSpline
 62
7
  6
BYLAYER
 70
0
 71
3
 72
18
 73
14
 74
0
 42
0.0000001
 43
0.0000001
 44
0.0000000001
 40
0.0
 40
0.0
 40
0.0
 40
0.0
 40
0.0328410788
 40
0.0676132805
 40
0.1058832841
 40
0.1487046021
 40
0.1966619251
 40
0.2499802493
 40
0.3722493529
 40
0.5132230757
 40
0.6685783853
 40
0.8328560098
 40
1.0
 40
1.0
 40
1.0
 40
1.0
 10
18.2883720923
 20
13.0081681773
 30
0.0
 10
18.287766086
 20
13.0081682966
 30
0.0
 10
18.2865127491
 20
13.0079934987
 30
0.0
 10
18.2846955942
 20
13.0072285774
 30
0.0
 10
18.2829395523
 20
13.0059850783
 30
0.0
 10
18.2812577219
 20
13.0042861211
 30
0.0
 10
18.279660328
 20
13.0021520392
 30
0.0
 10
18.2775661259
 20
12.9985905446
 30
0.0
 10
18.275322791
 20
12.9931686163
 30
0.0
 10
18.2732876128
 20
12.9857031988
 30
0.0
 10
18.2718887849
 20
12.9773063996
 30
0.0
 10
18.271189404
 20
12.9683415928
 30
0.0
 10
18.2712110945
 20
12.9622179246
 30
0.0
 10
18.2713492059
 20
12.9591367622
 30
0.0
  0
SPLINE
  5
3EF
100
AcDbEntity
  8
02___PRT_ALL_AXES
100
AcDbSpline
 62
7
  6
BYLAYER
 70
0
 71
3
 72
14
 73
10
 74
0
 42
0.0000001
 43
0.0000001
 44
0.0000000001
 40
0.0
 40
0.0
 40
0.0
 40
0.0
 40
0.0858720494
 40
0.177464953
 40
0.2792897935
 40
0.3942336666
 40
0.5237624258
 40
0.6682599514
 40
1.0
 40
1.0
 40
1.0
 40
1.0
 10
18.4255343651
 20
12.7286594047
 30
0.0
 10
18.424886505
 20
12.7286594265
 30
0.0
 10
18.4235408753
 20
12.728458003
 30
0.0
 10
18.4216015177
 20
12.7275815665
 30
0.0
 10
18.4197373226
 20
12.7261636865
 30
0.0
 10
18.4179621793
 20
12.7242326304
 30
0.0
 10
18.4162883311
 20
12.7218131501
 30
0.0
 10
18.4141137469
 20
12.7177860908
 30
0.0
 10
18.4128513236
 20
12.7144014775
 30
0.0
 10
18.4121123764
 20
12.7120102436
 30
0.0
  0
LINE
  5
3F0
100
AcDbEntity
  8
02___PRT_ALL_AXES
100
AcDbLine
 62
7
  6
BYLAYER
 10
18.4455553453
 20
12.2819558336
 11
18.443598124
 21
12.2816672962
  0
SPLINE
  5
3F1
100
AcDbEntity
  8
02___PRT_ALL_AXES
100
AcDbSpline
 62
7
  6
BYLAYER
 70
0
 71
3
 72
22
 73
18
 74
0
 42
0.0000001
 43
0.0000001
 44
0.0000000001
 40
0.0
 40
0.0
 40
0.0
 40
0.0
 40
0.015507359
 40
0.0315171966
 40
0.0666369403
 40
0.1079660869
 40
0.1565812879
 40
0.212593772
 40
0.2754963904
 40
0.3443725486
 40
0.4180235028
 40
0.5738743468
 40
0.7308179692
 40
0.8057963144
 40
0.8764611402
 40
0.9415368517
 40
1.0
 40
1.0
 40
1.0
 40
1.0
 10
18.3367115299
 20
11.9297305374
 30
0.0
 10
18.3362688118
 20
11.9297305302
 30
0.0
 10
18.3353666257
 20
11.9296396661
 30
0.0
 10
18.333536398
 20
11.9290840205
 30
0.0
 10
18.3312699184
 20
11.927640865
 30
0.0
 10
18.3288335607
 20
11.9249972972
 30
0.0
 10
18.3265976827
 20
11.9214610072
 30
0.0
 10
18.3246023207
 20
11.9171025362
 30
0.0
 10
18.3228868895
 20
11.9120149561
 30
0.0
 10
18.3214912291
 20
11.9063123607
 30
0.0
 10
18.3200759417
 20
11.897906198
 30
0.0
 10
18.319323683
 20
11.8868696879
 30
0.0
 10
18.3198543828
 20
11.8757834087
 30
0.0
 10
18.3210915465
 20
11.8672282466
 30
0.0
 10
18.3223692612
 20
11.8613436225
 30
0.0
 10
18.3239785098
 20
11.8560315599
 30
0.0
 10
18.3253253967
 20
11.852762581
 30
0.0
 10
18.3260606884
 20
11.8512642141
 30
0.0
  0
SPLINE
  5
3F2
100
AcDbEntity
  8
02___PRT_ALL_AXES
100
AcDbSpline
 62
7
  6
BYLAYER
 70
0
 71
3
 72
18
 73
14
 74
0
 42
0.0000001
 43
0.0000001
 44
0.0000000001
 40
0.0
 40
0.0
 40
0.0
 40
0.0
 40
0.0328410788
 40
0.0676132805
 40
0.1058832841
 40
0.1487046021
 40
0.1966619251
 40
0.2499802493
 40
0.3722493529
 40
0.5132230757
 40
0.6685783853
 40
0.8328560098
 40
1.0
 40
1.0
 40
1.0
 40
1.0
 10
18.1627579498
 20
11.8783122233
 30
0.0
 10
18.1621519436
 20
11.8783123426
 30
0.0
 10
18.1608986067
 20
11.8781375447
 30
0.0
 10
18.1590814518
 20
11.8773726234
 30
0.0
 10
18.1573254098
 20
11.8761291243
 30
0.0
 10
18.1556435794
 20
11.8744301671
 30
0.0
 10
18.1540461855
 20
11.8722960852
 30
0.0
 10
18.1519519834
 20
11.8687345906
 30
0.0
 10
18.1497086485
 20
11.8633126623
 30
0.0
 10
18.1476734703
 20
11.8558472448
 30
0.0
 10
18.1462746424
 20
11.8474504456
 30
0.0
 10
18.1455752615
 20
11.8384856388
 30
0.0
 10
18.145596952
 20
11.8323619706
 30
0.0
 10
18.1457350634
 20
11.8292808082
 30
0.0
  0
SPLINE
  5
3F3
100
AcDbEntity
  8
02___PRT_ALL_AXES
100
AcDbSpline
 62
7
  6
BYLAYER
 70
0
 71
3
 72
14
 73
10
 74
0
 42
0.0000001
 43
0.0000001
 44
0.0000000001
 40
0.0
 40
0.0
 40
0.0
 40
0.0
 40
0.0858720494
 40
0.177464953
 40
0.2792897935
 40
0.3942336666
 40
0.5237624258
 40
0.6682599514
 40
1.0
 40
1.0
 40
1.0
 40
1.0
 10
18.0255942216
 20
12.1578210659
 30
0.0
 10
18.0249463614
 20
12.1578210877
 30
0.0
 10
18.0236007318
 20
12.1576196641
 30
0.0
 10
18.0216613742
 20
12.1567432277
 30
0.0
 10
18.0197971791
 20
12.1553253477
 30
0.0
 10
18.0180220358
 20
12.1533942916
 30
0.0
 10
18.0163481876
 20
12.1509748113
 30
0.0
 10
18.0141736034
 20
12.146947752
 30
0.0
 10
18.01291118
 20
12.1435631387
 30
0.0
 10
18.0121722329
 20
12.1411719048
 30
0.0
  0
LINE
  5
3F4
100
AcDbEntity
  8
02___PRT_ALL_AXES
100
AcDbLine
 62
7
  6
BYLAYER
 10
18.0055687127
 20
12.6045244669
 11
18.0036114914
 21
12.6042359296
  0
SPLINE
  5
3F5
100
AcDbEntity
  8
02___PRT_ALL_AXES
100
AcDbSpline
 62
7
  6
BYLAYER
 70
0
 71
3
 72
22
 73
18
 74
0
 42
0.0000001
 43
0.0000001
 44
0.0000000001
 40
0.0
 40
0.0
 40
0.0
 40
0.0
 40
0.015507359
 40
0.0315171966
 40
0.0666369403
 40
0.1079660869
 40
0.1565812879
 40
0.212593772
 40
0.2754963904
 40
0.3443725486
 40
0.4180235028
 40
0.5738743468
 40
0.7308179692
 40
0.8057963144
 40
0.8764611402
 40
0.9415368517
 40
1.0
 40
1.0
 40
1.0
 40
1.0
 10
18.1144166103
 20
12.9567498123
 30
0.0
 10
18.1139738922
 20
12.9567498051
 30
0.0
 10
18.1130717061
 20
12.956658941
 30
0.0
 10
18.1112414784
 20
12.9561032954
 30
0.0
 10
18.1089749987
 20
12.9546601399
 30
0.0
 10
18.106538641
 20
12.952016572
 30
0.0
 10
18.1043027631
 20
12.9484802821
 30
0.0
 10
18.1023074011
 20
12.9441218111
 30
0.0
 10
18.1005919699
 20
12.9390342309
 30
0.0
 10
18.0991963094
 20
12.9333316356
 30
0.0
 10
18.0977810221
 20
12.9249254728
 30
0.0
 10
18.0970287633
 20
12.9138889627
 30
0.0
 10
18.0975594632
 20
12.9028026836
 30
0.0
 10
18.0987966269
 20
12.8942475214
 30
0.0
 10
18.1000743416
 20
12.8883628973
 30
0.0
 10
18.1016835902
 20
12.8830508347
 30
0.0
 10
18.1030304771
 20
12.8797818558
 30
0.0
 10
18.1037657687
 20
12.878283489
 30
0.0
  0
SPLINE
  5
3F6
100
AcDbEntity
  8
0
100
AcDbSpline
 62
7
  6
BYLAYER
 70
0
 71
3
 72
34
 73
30
 74
0
 42
0.0000001
 43
0.0000001
 44
0.0000000001
 40
0.0
 40
0.0
 40
0.0
 40
0.0
 40
0.0154280234
 40
0.0312694262
 40
0.0478991825
 40
0.0656282167
 40
0.0846944065
 40
0.1052659223
 40
0.1274504262
 40
0.1513054683
 40
0.1768478382
 40
0.2040612153
 40
0.2329021824
 40
0.2633049033
 40
0.2951847885
 40
0.3284414187
 40
0.3629609333
 40
0.3986180482
 40
0.4727883003
 40
0.5497934338
 40
0.5889728094
 40
0.6283856026
 40
0.7072485291
 40
0.7850802462
 40
0.860601165
 40
0.897117651
 40
0.9326100657
 40
0.96694592
 40
1.0
 40
1.0
 40
1.0
 40
1.0
 10
18.2255646172
 20
13.1367401634
 30
0.0
 10
18.232292205
 20
13.1367401209
 30
0.0
 10
18.2459577918
 20
13.1354943514
 30
0.0
 10
18.2661927618
 20
13.1299399385
 30
0.0
 10
18.2861617035
 20
13.1207587563
 30
0.0
 10
18.3057601966
 20
13.1080342173
 30
0.0
 10
18.3249113177
 20
13.0918528073
 30
0.0
 10
18.3435393706
 20
13.0723039537
 30
0.0
 10
18.361568709
 20
13.0494847816
 30
0.0
 10
18.3789216867
 20
13.023504292
 30
0.0
 10
18.3955201788
 20
12.9944856329
 30
0.0
 10
18.4112869873
 20
12.9625668458
 30
0.0
 10
18.426147213
 20
12.9279007086
 30
0.0
 10
18.4400292794
 20
12.8906541187
 30
0.0
 10
18.4528657732
 20
12.8510072051
 30
0.0
 10
18.4645938726
 20
12.8091524735
 30
0.0
 10
18.4751565412
 20
12.7652932957
 30
0.0
 10
18.487780698
 20
12.7036173441
 30
0.0
 10
18.5001925504
 20
12.6230405972
 30
0.0
 10
18.5080002364
 20
12.5403553554
 30
0.0
 10
18.5115718352
 20
12.472591781
 30
0.0
 10
18.513300024
 20
12.4039458975
 30
0.0
 10
18.5119655275
 20
12.3183947372
 30
0.0
 10
18.5048464721
 20
12.2173355002
 30
0.0
 10
18.4943194263
 20
12.1351577375
 30
0.0
 10
18.4831611392
 20
12.0717910593
 30
0.0
 10
18.4736279564
 20
12.0263991256
 30
0.0
 10
18.4628850408
 20
11.9828319583
 30
0.0
 10
18.4547881175
 20
11.9545739915
 30
0.0
 10
18.4505325234
 20
11.940802884
 30
0.0
  0
SPLINE
  5
3F7
100
AcDbEntity
  8
0
100
AcDbSpline
 62
7
  6
BYLAYER
 70
0
 71
3
 72
22
 73
18
 74
0
 42
0.0000001
 43
0.0000001
 44
0.0000000001
 40
0.0
 40
0.0
 40
0.0
 40
0.0
 40
0.0426296791
 40
0.0860021304
 40
0.1308142989
 40
0.1776816988
 40
0.2271191224
 40
0.2795360905
 40
0.3352419075
 40
0.3944562869
 40
0.457321916
 40
0.5239158302
 40
0.5942589296
 40
0.6683258371
 40
0.7460506619
 40
0.8273314609
 40
1.0
 40
1.0
 40
1.0
 40
1.0
 10
18.2255636763
 20
11.6617403078
 30
0.0
 10
18.2309597958
 20
11.6617402737
 30
0.0
 10
18.241861915
 20
11.6625344113
 30
0.0
 10
18.2580868962
 20
11.6660892524
 30
0.0
 10
18.274184475
 20
11.6719881194
 30
0.0
 10
18.2900959656
 20
11.680198131
 30
0.0
 10
18.3057751684
 20
11.6906817675
 30
0.0
 10
18.3211778911
 20
11.7033985777
 30
0.0
 10
18.3362619433
 20
11.718304595
 30
0.0
 10
18.3509852834
 20
11.7353515163
 30
0.0
 10
18.3653056742
 20
11.754485969
 30
0.0
 10
18.3791808488
 20
11.7756486887
 30
0.0
 10
18.3925693173
 20
11.798774123
 30
0.0
 10
18.405430004
 20
11.823790473
 30
0.0
 10
18.4177235443
 20
11.8506202473
 30
0.0
 10
18.4336272902
 20
11.8894844983
 30
0.0
 10
18.4440794181
 20
11.9199206277
 30
0.0
 10
18.4505325234
 20
11.940802884
 30
0.0
  0
SPLINE
  5
3F8
100
AcDbEntity
  8
0
100
AcDbSpline
 62
7
  6
BYLAYER
 70
0
 71
3
 72
10
 73
6
 74
0
 42
0.0000001
 43
0.0000001
 44
0.0000000001
 40
0.0
 40
0.0
 40
0.0
 40
0.0
 40
0.2394088225
 40
0.4839675662
 40
1.0
 40
1.0
 40
1.0
 40
1.0
 10
17.3703819337
 20
12.883836444
 30
0.0
 10
17.3707171624
 20
12.8830681405
 30
0.0
 10
17.3712420299
 20
12.8814430859
 30
0.0
 10
17.3716679991
 20
12.8779518784
 30
0.0
 10
17.3712476414
 20
12.8752549037
 30
0.0
 10
17.370714186
 20
12.8735286414
 30
0.0
  0
SPLINE
  5
3F9
100
AcDbEntity
  8
0
100
AcDbSpline
 62
7
  6
BYLAYER
 70
0
 71
3
 72
23
 73
19
 74
0
 42
0.0000001
 43
0.0000001
 44
0.0000000001
 40
0.0
 40
0.0
 40
0.0
 40
0.0
 40
0.0553604895
 40
0.1117720114
 40
0.1701693385
 40
0.2312119482
 40
0.295137629
 40
0.3617204582
 40
0.4303233815
 40
0.5000121184
 40
0.5696997913
 40
0.6382997199
 40
0.7048788699
 40
0.7688001621
 40
0.8298373718
 40
0.8882313181
 40
0.9446406074
 40
1.0
 40
1.0
 40
1.0
 40
1.0
 10
17.4063160711
 20
12.8967150372
 30
0.0
 10
17.4049110358
 20
12.8995770057
 30
0.0
 10
17.40127638
 20
12.9049981657
 30
0.0
 10
17.3938287497
 20
12.9115180904
 30
0.0
 10
17.3847718071
 20
12.9162409916
 30
0.0
 10
17.3745236838
 20
12.9190626231
 30
0.0
 10
17.3634717928
 20
12.9199673742
 30
0.0
 10
17.351998254
 20
12.918982179
 30
0.0
 10
17.340492927
 20
12.9161761356
 30
0.0
 10
17.3293528537
 20
12.9116644922
 30
0.0
 10
17.318969385
 20
12.905611776
 30
0.0
 10
17.3097118433
 20
12.8982270733
 30
0.0
 10
17.3019144533
 20
12.889753639
 30
0.0
 10
17.2958702343
 20
12.8804577825
 30
0.0
 10
17.2918339332
 20
12.8706252895
 30
0.0
 10
17.2900306748
 20
12.8605719163
 30
0.0
 10
17.2906334414
 20
12.8506924467
 30
0.0
 10
17.2926986307
 20
12.8445010702
 30
0.0
 10
17.2941036964
 20
12.8416391871
 30
0.0
  0
SPLINE
  5
3FA
100
AcDbEntity
  8
0
100
AcDbSpline
 62
7
  6
BYLAYER
 70
0
 71
3
 72
11
 73
7
 74
0
 42
0.0000001
 43
0.0000001
 44
0.0000000001
 40
0.0
 40
0.0
 40
0.0
 40
0.0
 40
0.2352500243
 40
0.4797028115
 40
0.7346374722
 40
1.0
 40
1.0
 40
1.0
 40
1.0
 10
17.792346723
 20
12.7241929934
 30
0.0
 10
17.7922263344
 20
12.7160665952
 30
0.0
 10
17.7907785566
 20
12.6994892547
 30
0.0
 10
17.7849146785
 20
12.674710649
 30
0.0
 10
17.7753364039
 20
12.650008396
 30
0.0
 10
17.7668237672
 20
12.634127066
 30
0.0
 10
17.7620884326
 20
12.6262771297
 30
0.0
  0
SPLINE
  5
3FB
100
AcDbEntity
  8
0
100
AcDbSpline
 62
7
  6
BYLAYER
 70
0
 71
3
 72
31
 73
27
 74
0
 42
0.0000001
 43
0.0000001
 44
0.0000000001
 40
0.0
 40
0.0
 40
0.0
 40
0.0
 40
0.0155006603
 40
0.0315033918
 40
0.04845458
 40
0.0667108843
 40
0.0865311865
 40
0.1080853564
 40
0.1314690545
 40
0.1567184171
 40
0.1838223464
 40
0.2127319716
 40
0.2433678205
 40
0.2756252511
 40
0.3444715195
 40
0.4180904414
 40
0.4950891244
 40
0.5739482558
 40
0.6530824723
 40
0.7308966927
 40
0.8058424842
 40
0.8764761864
 40
0.9097770415
 40
0.9415398993
 40
0.9716479459
 40
1.0
 40
1.0
 40
1.0
 40
1.0
 10
18.225564845
 20
12.0877402376
 30
0.0
 10
18.2286990979
 20
12.087740307
 30
0.0
 10
18.2350859941
 20
12.0883840368
 30
0.0
 10
18.2445122474
 20
12.091246361
 30
0.0
 10
18.253782679
 20
12.0959651217
 30
0.0
 10
18.2628421129
 20
12.1024879628
 30
0.0
 10
18.2716507398
 20
12.1107632561
 30
0.0
 10
18.2801677665
 20
12.1207380856
 30
0.0
 10
18.2883513909
 20
12.1323540726
 30
0.0
 10
18.2961584278
 20
12.145544733
 30
0.0
 10
18.3035456722
 20
12.1602344582
 30
0.0
 10
18.3104708018
 20
12.1763383516
 30
0.0
 10
18.3168938846
 20
12.1937627511
 30
0.0
 10
18.3249109133
 20
12.2191742573
 30
0.0
 10
18.3333161538
 20
12.2535319931
 30
0.0
 10
18.3406955381
 20
12.2973234025
 30
0.0
 10
18.345395469
 20
12.3435167568
 30
0.0
 10
18.3473025194
 20
12.3910227649
 30
0.0
 10
18.3463700141
 20
12.4387225717
 30
0.0
 10
18.3426207652
 20
12.4854921909
 30
0.0
 10
18.3361455349
 20
12.5302279232
 30
0.0
 10
18.3284660416
 20
12.565612554
 30
0.0
 10
18.3209990025
 20
12.5920228082
 30
0.0
 10
18.3149435316
 20
12.6102967649
 30
0.0
 10
18.3083598125
 20
12.627318578
 30
0.0
 10
18.3034933589
 20
12.6381000332
 30
0.0
 10
18.3009678065
 20
12.6432465679
 30
0.0
  0
LINE
  5
3FC
100
AcDbEntity
  8
0
100
AcDbLine
 62
7
  6
BYLAYER
 10
17.7620884326
 20
12.6262771297
 11
17.7962920984
 21
12.6153266245
  0
SPLINE
  5
3FD
100
AcDbEntity
  8
0
100
AcDbSpline
 62
7
  6
BYLAYER
 70
0
 71
3
 72
26
 73
22
 74
0
 42
0.0000001
 43
0.0000001
 44
0.0000000001
 40
0.0
 40
0.0
 40
0.0
 40
0.0
 40
0.0252895244
 40
0.0506158581
 40
0.076088994
 40
0.1018142626
 40
0.154349328
 40
0.2089230323
 40
0.2371391194
 40
0.266007254
 40
0.2955455801
 40
0.3257587418
 40
0.3881339481
 40
0.45296585
 40
0.5198969305
 40
0.5884490831
 40
0.6580574576
 40
0.7281035552
 40
0.7979471861
 40
0.8669581388
 40
1.0
 40
1.0
 40
1.0
 40
1.0
 10
17.195617148
 20
13.5571566004
 30
0.0
 10
17.1931351303
 20
13.5614879007
 30
0.0
 10
17.1885796021
 20
13.5704007124
 30
0.0
 10
17.1830502177
 20
13.5843888711
 30
0.0
 10
17.1788534615
 20
13.5989243936
 30
0.0
 10
17.1750348199
 20
13.6190677581
 30
0.0
 10
17.1737501229
 20
13.6454080467
 30
0.0
 10
17.1770498939
 20
13.6720424784
 30
0.0
 10
17.1822940355
 20
13.6934677312
 30
0.0
 10
17.1876013574
 20
13.7097393373
 30
0.0
 10
17.194212074
 20
13.7259510076
 30
0.0
 10
17.20483186
 20
13.7476108879
 30
0.0
 10
17.2212611719
 20
13.7740938339
 30
0.0
 10
17.2452860527
 20
13.8040564708
 30
0.0
 10
17.2733780677
 20
13.8319962623
 30
0.0
 10
17.3050028732
 20
13.8573876756
 30
0.0
 10
17.3395647655
 20
13.879757288
 30
0.0
 10
17.3764079691
 20
13.898683519
 30
0.0
 10
17.4148520964
 20
13.9138128037
 30
0.0
 10
17.4665700652
 20
13.9283485763
 30
0.0
 10
17.5065901731
 20
13.9331734756
 30
0.0
 10
17.5328521048
 20
13.9331734756
 30
0.0
  0
SPLINE
  5
3FE
100
AcDbEntity
  8
02___PRT_ALL_AXES
100
AcDbSpline
 62
7
  6
BYLAYER
 70
0
 71
3
 72
15
 73
11
 74
0
 42
0.0000001
 43
0.0000001
 44
0.0000000001
 40
0.0
 40
0.0
 40
0.0
 40
0.0
 40
0.0513942721
 40
0.1033498683
 40
0.2106760257
 40
0.3253248324
 40
0.4485650575
 40
0.5799464275
 40
0.7176743109
 40
1.0
 40
1.0
 40
1.0
 40
1.0
 10
17.9479357242
 20
13.8599464613
 30
0.0
 10
17.9474229129
 20
13.8609918022
 30
0.0
 10
17.9462280436
 20
13.8630181358
 30
0.0
 10
17.9432035559
 20
13.8667299236
 30
0.0
 10
17.9382458571
 20
13.8706103733
 30
0.0
 10
17.9309777727
 20
13.8736948536
 30
0.0
 10
17.9226822061
 20
13.8751756707
 30
0.0
 10
17.9137420376
 20
13.8750074921
 30
0.0
 10
17.9014402533
 20
13.8726064559
 30
0.0
 10
17.8926145555
 20
13.8685086638
 30
0.0
 10
17.8873093332
 20
13.864935776
 30
0.0
  0
SPLINE
  5
3FF
100
AcDbEntity
  8
02___PRT_ALL_AXES
100
AcDbSpline
 62
7
  6
BYLAYER
 70
0
 71
3
 72
11
 73
7
 74
0
 42
0.0000001
 43
0.0000001
 44
0.0000000001
 40
0.0
 40
0.0
 40
0.0
 40
0.0
 40
0.2644202521
 40
0.5170856368
 40
0.7609150129
 40
1.0
 40
1.0
 40
1.0
 40
1.0
 10
17.1460509445
 20
13.3544180457
 30
0.0
 10
17.1455341982
 20
13.3527458539
 30
0.0
 10
17.1447772704
 20
13.3493887143
 30
0.0
 10
17.1445494141
 20
13.3443292255
 30
0.0
 10
17.145268563
 20
13.339482529
 30
0.0
 10
17.1463795977
 20
13.3364567082
 30
0.0
 10
17.1470765891
 20
13.3350359443
 30
0.0
  0
SPLINE
  5
400
100
AcDbEntity
  8
02___PRT_ALL_AXES
100
AcDbSpline
 62
7
  6
BYLAYER
 70
0
 71
3
 72
19
 73
15
 74
0
 42
0.0000001
 43
0.0000001
 44
0.0000000001
 40
0.0
 40
0.0
 40
0.0
 40
0.0
 40
0.0507459952
 40
0.1026294472
 40
0.1566080379
 40
0.2133381529
 40
0.335623381
 40
0.4012047648
 40
0.4690057161
 40
0.6081751752
 40
0.7469361473
 40
0.8142544212
 40
0.8792081901
 40
1.0
 40
1.0
 40
1.0
 40
1.0
 10
17.7733878266
 20
14.0613148611
 30
0.0
 10
17.7726453218
 20
14.0628284004
 30
0.0
 10
17.7707956537
 20
14.0657313712
 30
0.0
 10
17.7670932905
 20
14.0694385702
 30
0.0
 10
17.7625548203
 20
14.0724318274
 30
0.0
 10
17.7553879777
 20
14.0754485552
 30
0.0
 10
17.7472016635
 20
14.0766450445
 30
0.0
 10
17.7387071593
 20
14.0761939737
 30
0.0
 10
17.7297742965
 20
14.0745805086
 30
0.0
 10
17.7189144091
 20
14.0705236469
 30
0.0
 10
17.7092455686
 20
14.0641544829
 30
0.0
 10
17.7027245568
 20
14.0579106895
 30
0.0
 10
17.6974345944
 20
14.0513624551
 30
0.0
 10
17.6945448968
 20
14.045766752
 30
0.0
 10
17.6933601036
 20
14.0419327598
 30
0.0
  0
SPLINE
  5
401
100
AcDbEntity
  8
02___PRT_ALL_AXES
100
AcDbSpline
 62
7
  6
BYLAYER
 70
0
 71
3
 72
9
 73
5
 74
0
 42
0.0000001
 43
0.0000001
 44
0.0000000001
 40
0.0
 40
0.0
 40
0.0
 40
0.0
 40
0.249055861
 40
1.0
 40
1.0
 40
1.0
 40
1.0
 10
17.4385368218
 20
14.0613148801
 30
0.0
 10
17.4383174776
 20
14.0617619615
 30
0.0
 10
17.4373785043
 20
14.0635280087
 30
0.0
 10
17.4362072568
 20
14.0651695711
 30
0.0
 10
17.4352237733
 20
14.0663041736
 30
0.0
  0
SPLINE
  5
402
100
AcDbEntity
  8
0
100
AcDbSpline
 62
7
  6
BYLAYER
 70
0
 71
3
 72
19
 73
15
 74
0
 42
0.0000001
 43
0.0000001
 44
0.0000000001
 40
0.0
 40
0.0
 40
0.0
 40
0.0
 40
0.1211520341
 40
0.2536350789
 40
0.3229056121
 40
0.3930762646
 40
0.5324307284
 40
0.6653384608
 40
0.7279321039
 40
0.7874144101
 40
0.8438136048
 40
0.8975060876
 40
0.9492249374
 40
1.0
 40
1.0
 40
1.0
 40
1.0
 10
17.3254348275
 20
12.8735286414
 30
0.0
 10
17.3261054653
 20
12.8756988261
 30
0.0
 10
17.3283388602
 20
12.8799998584
 30
0.0
 10
17.3325402515
 20
12.8844475407
 30
0.0
 10
17.3366480439
 20
12.887483958
 30
0.0
 10
17.341195515
 20
12.8900824557
 30
0.0
 10
17.3472871973
 20
12.8922910018
 30
0.0
 10
17.3536038894
 20
12.8929821244
 30
0.0
 10
17.3583751293
 20
12.8924936938
 30
0.0
 10
17.3616270662
 20
12.8916443083
 30
0.0
 10
17.3645374481
 20
12.8903227113
 30
0.0
 10
17.3670293606
 20
12.8885567446
 30
0.0
 10
17.3690310128
 20
12.8863896386
 30
0.0
 10
17.3700012296
 20
12.8847089719
 30
0.0
 10
17.3703819337
 20
12.883836444
 30
0.0
  0
SPLINE
  5
403
100
AcDbEntity
  8
02___PRT_ALL_AXES
100
AcDbSpline
 62
7
  6
BYLAYER
 70
0
 71
3
 72
13
 73
9
 74
0
 42
0.0000001
 43
0.0000001
 44
0.0000000001
 40
0.0
 40
0.0
 40
0.0
 40
0.0
 40
0.112901454
 40
0.2273080665
 40
0.3445816013
 40
0.4658270975
 40
0.7224524585
 40
1.0
 40
1.0
 40
1.0
 40
1.0
 10
17.1395337934
 20
13.8599464612
 30
0.0
 10
17.1389660091
 20
13.8611038625
 30
0.0
 10
17.1376219941
 20
13.8633413276
 30
0.0
 10
17.1350515325
 20
13.8663424141
 30
0.0
 10
17.1319612814
 20
13.8689551983
 30
0.0
 10
17.127127325
 20
13.8719233515
 30
0.0
 10
17.1199769866
 20
13.8744258113
 30
0.0
 10
17.1138528632
 20
13.8750307462
 30
0.0
 10
17.1106836772
 20
13.8750307462
 30
0.0
  0
SPLINE
  5
404
100
AcDbEntity
  8
0
100
AcDbSpline
 62
7
  6
BYLAYER
 70
0
 71
3
 72
9
 73
5
 74
0
 42
0.0000001
 43
0.0000001
 44
0.0000000001
 40
0.0
 40
0.0
 40
0.0
 40
0.0
 40
0.5093368841
 40
1.0
 40
1.0
 40
1.0
 40
1.0
 10
17.2988711054
 20
12.8344843972
 30
0.0
 10
17.2980837299
 20
12.8352576253
 30
0.0
 10
17.2966504995
 20
12.8368968017
 30
0.0
 10
17.2955172733
 20
12.8387584675
 30
0.0
 10
17.2950489354
 20
12.8397128464
 30
0.0
  0
SPLINE
  5
405
100
AcDbEntity
  8
02___PRT_ALL_AXES
100
AcDbSpline
 62
7
  6
BYLAYER
 70
0
 71
3
 72
15
 73
11
 74
0
 42
0.0000001
 43
0.0000001
 44
0.0000000001
 40
0.0
 40
0.0
 40
0.0
 40
0.0
 40
0.0513942721
 40
0.1033498683
 40
0.2106760257
 40
0.3253248324
 40
0.4485650575
 40
0.5799464275
 40
0.7176743109
 40
1.0
 40
1.0
 40
1.0
 40
1.0
 10
17.0515307608
 20
13.5751685424
 30
0.0
 10
17.0510179495
 20
13.5762138833
 30
0.0
 10
17.0498230802
 20
13.5782402169
 30
0.0
 10
17.0467985925
 20
13.5819520047
 30
0.0
 10
17.0418408937
 20
13.5858324544
 30
0.0
 10
17.0345728092
 20
13.5889169347
 30
0.0
 10
17.0262772427
 20
13.5903977518
 30
0.0
 10
17.0173370742
 20
13.5902295732
 30
0.0
 10
17.0050352898
 20
13.587828537
 30
0.0
 10
16.996209592
 20
13.5837307449
 30
0.0
 10
16.9909043697
 20
13.5801578571
 30
0.0
  0
SPLINE
  5
406
100
AcDbEntity
  8
0
100
AcDbSpline
 62
7
  6
BYLAYER
 70
0
 71
3
 72
10
 73
6
 74
0
 42
0.0000001
 43
0.0000001
 44
0.0000000001
 40
0.0
 40
0.0
 40
0.0
 40
0.0
 40
0.4924478515
 40
0.7486360426
 40
1.0
 40
1.0
 40
1.0
 40
1.0
 10
17.3340870491
 20
12.8268658496
 30
0.0
 10
17.3417944579
 20
12.8268658467
 30
0.0
 10
17.3535615434
 20
12.8273018084
 30
0.0
 10
17.3689523392
 20
12.8303206926
 30
0.0
 10
17.376511446
 20
12.8328870941
 30
0.0
 10
17.3801067151
 20
12.8344844648
 30
0.0
  0
SPLINE
  5
407
100
AcDbEntity
  8
0
100
AcDbSpline
 62
7
  6
BYLAYER
 70
0
 71
3
 72
14
 73
10
 74
0
 42
0.0000001
 43
0.0000001
 44
0.0000000001
 40
0.0
 40
0.0
 40
0.0
 40
0.0
 40
0.1972254475
 40
0.3109048724
 40
0.4343284744
 40
0.5664547832
 40
0.7058035326
 40
0.8507794574
 40
1.0
 40
1.0
 40
1.0
 40
1.0
 10
17.2988710469
 20
12.8344844642
 30
0.0
 10
17.300595144
 20
12.8327913341
 30
0.0
 10
17.3039943204
 20
12.8308243586
 30
0.0
 10
17.3090323206
 20
12.8291287607
 30
0.0
 10
17.3134595075
 20
12.8281469816
 30
0.0
 10
17.3182551414
 20
12.8274858778
 30
0.0
 10
17.3233448526
 20
12.8270926362
 30
0.0
 10
17.3286540127
 20
12.8268992901
 30
0.0
 10
17.3322587705
 20
12.8268658489
 30
0.0
 10
17.334087049
 20
12.8268658482
 30
0.0
  0
SPLINE
  5
408
100
AcDbEntity
  8
02___PRT_ALL_AXES
100
AcDbSpline
 62
7
  6
BYLAYER
 70
0
 71
3
 72
19
 73
15
 74
0
 42
0.0000001
 43
0.0000001
 44
0.0000000001
 40
0.0
 40
0.0
 40
0.0
 40
0.0
 40
0.0507459952
 40
0.1026294472
 40
0.1566080379
 40
0.2133381529
 40
0.335623381
 40
0.4012047648
 40
0.4690057161
 40
0.6081751752
 40
0.7469361473
 40
0.8142544212
 40
0.8792081901
 40
1.0
 40
1.0
 40
1.0
 40
1.0
 10
17.2260786675
 20
13.373800147
 30
0.0
 10
17.2253361627
 20
13.3753136863
 30
0.0
 10
17.2234864946
 20
13.378216657
 30
0.0
 10
17.2197841314
 20
13.3819238561
 30
0.0
 10
17.2152456612
 20
13.3849171133
 30
0.0
 10
17.2080788187
 20
13.387933841
 30
0.0
 10
17.1998925044
 20
13.3891303304
 30
0.0
 10
17.1913980002
 20
13.3886792595
 30
0.0
 10
17.1824651374
 20
13.3870657945
 30
0.0
 10
17.17160525
 20
13.3830089328
 30
0.0
 10
17.1619364095
 20
13.3766397688
 30
0.0
 10
17.1554153977
 20
13.3703959754
 30
0.0
 10
17.1501254353
 20
13.363847741
 30
0.0
 10
17.1472357377
 20
13.3582520379
 30
0.0
 10
17.1460509445
 20
13.3544180457
 30
0.0
  0
SPLINE
  5
409
100
AcDbEntity
  8
02___PRT_ALL_AXES
100
AcDbSpline
 62
7
  6
BYLAYER
 70
0
 71
3
 72
21
 73
17
 74
0
 42
0.0000001
 43
0.0000001
 44
0.0000000001
 40
0.0
 40
0.0
 40
0.0
 40
0.0
 40
0.0533394179
 40
0.1094591246
 40
0.1690662237
 40
0.2323153903
 40
0.3677248548
 40
0.4386062676
 40
0.5100561976
 40
0.5809159487
 40
0.6500790287
 40
0.7793548491
 40
0.8388927127
 40
0.8949536638
 40
0.948249955
 40
1.0
 40
1.0
 40
1.0
 40
1.0
 10
17.4352237733
 20
14.0663041736
 30
0.0
 10
17.4339018629
 20
14.0678292047
 30
0.0
 10
17.4307800377
 20
14.0706223556
 30
0.0
 10
17.4251265308
 20
14.0737139857
 30
0.0
 10
17.4186114513
 20
14.0757124638
 30
0.0
 10
17.408867776
 20
14.0768711359
 30
0.0
 10
17.3985708153
 20
14.0755850652
 30
0.0
 10
17.3885937095
 20
14.0722258235
 30
0.0
 10
17.3813333343
 20
14.0686528149
 30
0.0
 10
17.3746639944
 20
14.0641832166
 30
0.0
 10
17.36703986
 20
14.0573974934
 30
0.0
 10
17.3611598206
 20
14.0493498112
 30
0.0
 10
17.3579019022
 20
14.0406221085
 30
0.0
 10
17.3569159774
 20
14.0342558631
 30
0.0
 10
17.3573803737
 20
14.0281215054
 30
0.0
 10
17.3586722148
 20
14.0243085422
 30
0.0
 10
17.359534666
 20
14.0225506394
 30
0.0
  0
SPLINE
  5
40A
100
AcDbEntity
  8
02___PRT_ALL_AXES
100
AcDbSpline
 62
7
  6
BYLAYER
 70
0
 71
3
 72
18
 73
14
 74
0
 42
0.0000001
 43
0.0000001
 44
0.0000000001
 40
0.0
 40
0.0
 40
0.0
 40
0.0
 40
0.1325554506
 40
0.2706978984
 40
0.4098335297
 40
0.545172286
 40
0.672670422
 40
0.7327889014
 40
0.7902840082
 40
0.8452976361
 40
0.8981846984
 40
0.9495078044
 40
1.0
 40
1.0
 40
1.0
 40
1.0
 10
17.8310825748
 20
13.5902528273
 30
0.0
 10
17.8273132524
 20
13.5902528273
 30
0.0
 10
17.8195978314
 20
13.5893424446
 30
0.0
 10
17.8084706512
 20
13.5856509815
 30
0.0
 10
17.7981825127
 20
13.5798541035
 30
0.0
 10
17.7894565592
 20
13.5723545629
 30
0.0
 10
17.7838758305
 20
13.5649441707
 30
0.0
 10
17.7808111571
 20
13.55866376
 30
0.0
 10
17.7792784875
 20
13.5539821576
 30
0.0
 10
17.7784996923
 20
13.5493243467
 30
0.0
 10
17.7784941974
 20
13.5447743084
 30
0.0
 10
17.7792666895
 20
13.5404200857
 30
0.0
 10
17.7802982635
 20
13.5376933773
 30
0.0
 10
17.7809306222
 20
13.5364043443
 30
0.0
  0
SPLINE
  5
40B
100
AcDbEntity
  8
02___PRT_ALL_AXES
100
AcDbSpline
 62
7
  6
BYLAYER
 70
0
 71
3
 72
13
 73
9
 74
0
 42
0.0000001
 43
0.0000001
 44
0.0000000001
 40
0.0
 40
0.0
 40
0.0
 40
0.0
 40
0.315400522
 40
0.5810589302
 40
0.6971077941
 40
0.8038551287
 40
0.9037565427
 40
1.0
 40
1.0
 40
1.0
 40
1.0
 10
18.1250676052
 20
12.947216257
 30
0.0
 10
18.1243730228
 20
12.9486316671
 30
0.0
 10
18.1229319283
 20
12.9511660647
 30
0.0
 10
18.1206706761
 20
12.9538608217
 30
0.0
 10
18.1187454375
 20
12.9553764223
 30
0.0
 10
18.1173277562
 20
12.9561631944
 30
0.0
 10
18.115881265
 20
12.9566419667
 30
0.0
 10
18.1148977204
 20
12.9567498201
 30
0.0
 10
18.1144166103
 20
12.9567498123
 30
0.0
  0
SPLINE
  5
40C
100
AcDbEntity
  8
02___PRT_ALL_AXES
100
AcDbSpline
 62
7
  6
BYLAYER
 70
0
 71
3
 72
9
 73
5
 74
0
 42
0.0000001
 43
0.0000001
 44
0.0000000001
 40
0.0
 40
0.0
 40
0.0
 40
0.0
 40
0.249055861
 40
1.0
 40
1.0
 40
1.0
 40
1.0
 10
17.5609297497
 20
13.373800166
 30
0.0
 10
17.5607104054
 20
13.3742472474
 30
0.0
 10
17.5597714322
 20
13.3760132946
 30
0.0
 10
17.5586001846
 20
13.377654857
 30
0.0
 10
17.5576167011
 20
13.3787894595
 30
0.0
  0
SPLINE
  5
40D
100
AcDbEntity
  8
02___PRT_ALL_AXES
100
AcDbSpline
 62
7
  6
BYLAYER
 70
0
 71
3
 72
14
 73
10
 74
0
 42
0.0000001
 43
0.0000001
 44
0.0000000001
 40
0.0
 40
0.0
 40
0.0
 40
0.0
 40
0.2847983612
 40
0.4197453322
 40
0.5479667608
 40
0.6691315371
 40
0.7837546752
 40
0.8932813447
 40
1.0
 40
1.0
 40
1.0
 40
1.0
 10
16.9909043697
 20
13.5801578571
 30
0.0
 10
16.9868473879
 20
13.5774256171
 30
0.0
 10
16.9813145323
 20
13.572628288
 30
0.0
 10
16.9756616238
 20
13.5650708026
 30
0.0
 10
16.972558602
 20
13.5592099174
 30
0.0
 10
16.9706211129
 20
13.5532294657
 30
0.0
 10
16.9699178153
 20
13.5472975881
 30
0.0
 10
16.9704861218
 20
13.5415966838
 30
0.0
 10
16.9717214646
 20
13.5380498369
 30
0.0
 10
16.9725286914
 20
13.5364043442
 30
0.0
  0
SPLINE
  5
40E
100
AcDbEntity
  8
02___PRT_ALL_AXES
100
AcDbSpline
 62
7
  6
BYLAYER
 70
0
 71
3
 72
13
 73
9
 74
0
 42
0.0000001
 43
0.0000001
 44
0.0000000001
 40
0.0
 40
0.0
 40
0.0
 40
0.0
 40
0.112901454
 40
0.2273080665
 40
0.3445816013
 40
0.4658270975
 40
0.7224524585
 40
1.0
 40
1.0
 40
1.0
 40
1.0
 10
17.859932691
 20
13.5751685422
 30
0.0
 10
17.8593649067
 20
13.5763259436
 30
0.0
 10
17.8580208917
 20
13.5785634087
 30
0.0
 10
17.8554504301
 20
13.5815644951
 30
0.0
 10
17.852360179
 20
13.5841772793
 30
0.0
 10
17.8475262226
 20
13.5871454326
 30
0.0
 10
17.8403758842
 20
13.5896478924
 30
0.0
 10
17.8342517608
 20
13.5902528273
 30
0.0
 10
17.8310825748
 20
13.5902528273
 30
0.0
  0
SPLINE
  5
40F
100
AcDbEntity
  8
02___PRT_ALL_AXES
100
AcDbSpline
 62
7
  6
BYLAYER
 70
0
 71
3
 72
11
 73
7
 74
0
 42
0.0000001
 43
0.0000001
 44
0.0000000001
 40
0.0
 40
0.0
 40
0.0
 40
0.0
 40
0.2644202521
 40
0.5170856368
 40
0.7609150129
 40
1.0
 40
1.0
 40
1.0
 40
1.0
 10
17.6933601036
 20
14.0419327598
 30
0.0
 10
17.6928433573
 20
14.040260568
 30
0.0
 10
17.6920864295
 20
14.0369034284
 30
0.0
 10
17.6918585732
 20
14.0318439396
 30
0.0
 10
17.692577722
 20
14.0269972431
 30
0.0
 10
17.6936887568
 20
14.0239714223
 30
0.0
 10
17.6943857482
 20
14.0225506585
 30
0.0
  0
SPLINE
  5
410
100
AcDbEntity
  8
0
100
AcDbSpline
 62
7
  6
BYLAYER
 70
0
 71
3
 72
19
 73
15
 74
0
 42
0.0000001
 43
0.0000001
 44
0.0000000001
 40
0.0
 40
0.0
 40
0.0
 40
0.0
 40
0.0563316299
 40
0.1128542877
 40
0.1697542249
 40
0.2272085318
 40
0.3443309936
 40
0.4654198014
 40
0.5277450442
 40
0.5913241545
 40
0.6561997864
 40
0.7223939646
 40
0.858666828
 40
1.0
 40
1.0
 40
1.0
 40
1.0
 10
16.9162085987
 20
13.4312029899
 30
0.0
 10
16.9201163108
 20
13.4232402882
 30
0.0
 10
16.9286230049
 20
13.4076104566
 30
0.0
 10
16.9433457792
 20
13.3852661243
 30
0.0
 10
16.9599877494
 20
13.3640834903
 30
0.0
 10
16.9847968242
 20
13.3373350275
 30
0.0
 10
17.0205035249
 20
13.3071429568
 30
0.0
 10
17.0609834756
 20
13.2822971256
 30
0.0
 10
17.0960875305
 20
13.265501351
 30
0.0
 10
17.124019148
 20
13.2543833329
 30
0.0
 10
17.1531893629
 20
13.2449102773
 30
0.0
 10
17.193980107
 20
13.2344173471
 30
0.0
 10
17.2475370543
 20
13.2257005381
 30
0.0
 10
17.2912859329
 20
13.2234792955
 30
0.0
 10
17.3135400158
 20
13.2234792955
 30
0.0
  0
SPLINE
  5
411
100
AcDbEntity
  8
02___PRT_ALL_AXES
100
AcDbSpline
 62
7
  6
BYLAYER
 70
0
 71
3
 72
27
 73
23
 74
0
 42
0.0000001
 43
0.0000001
 44
0.0000000001
 40
0.0
 40
0.0
 40
0.0
 40
0.0
 40
0.0365543145
 40
0.0577236384
 40
0.0811775824
 40
0.1070411492
 40
0.1353331506
 40
0.1988579178
 40
0.2706300455
 40
0.3488380637
 40
0.4312678551
 40
0.5154690607
 40
0.5988969118
 40
0.6790476185
 40
0.753596068
 40
0.8205494401
 40
0.8784468499
 40
0.9266705119
 40
0.9473839634
 40
0.9661578409
 40
0.9834724891
 40
1.0
 40
1.0
 40
1.0
 40
1.0
 10
18.0075301695
 20
12.5168131749
 30
0.0
 10
18.0086830029
 20
12.5171539351
 30
0.0
 10
18.0103739069
 20
12.5181464546
 30
0.0
 10
18.0123029951
 20
12.5199927996
 30
0.0
 10
18.013762033
 20
12.5218034556
 30
0.0
 10
18.0151437537
 20
12.523953469
 30
0.0
 10
18.0169420243
 20
12.5273851833
 30
0.0
 10
18.0188837464
 20
12.532420696
 30
0.0
 10
18.0206771229
 20
12.5392197314
 30
0.0
 10
18.0219514879
 20
12.5467653742
 30
0.0
 10
18.0226605901
 20
12.5547936214
 30
0.0
 10
18.0227782067
 20
12.5630236567
 30
0.0
 10
18.0223000431
 20
12.5711656611
 30
0.0
 10
18.0212436623
 20
12.5789338034
 30
0.0
 10
18.0196481358
 20
12.5860565043
 30
0.0
 10
18.0175697709
 20
12.592291956
 30
0.0
 10
18.0150822614
 20
12.5974301395
 30
0.0
 10
18.0126061564
 20
12.6008373537
 30
0.0
 10
18.010451263
 20
12.6027710042
 30
0.0
 10
18.0088619151
 20
12.6037731766
 30
0.0
 10
18.0072294958
 20
12.6043859602
 30
0.0
 10
18.0061122433
 20
12.6045247156
 30
0.0
 10
18.0055687127
 20
12.6045244669
 30
0.0
  0
SPLINE
  5
412
100
AcDbEntity
  8
0
100
AcDbSpline
 62
7
  6
BYLAYER
 70
0
 71
3
 72
25
 73
21
 74
0
 42
0.0000001
 43
0.0000001
 44
0.0000000001
 40
0.0
 40
0.0
 40
0.0
 40
0.0
 40
0.0258295522
 40
0.0517227771
 40
0.0777422239
 40
0.1039481602
 40
0.1571130557
 40
0.2116527033
 40
0.2395540917
 40
0.2679100001
 40
0.3260538181
 40
0.3862315378
 40
0.4484700707
 40
0.5127096886
 40
0.5788140883
 40
0.6465813554
 40
0.7157552322
 40
0.7860361568
 40
0.8570920074
 40
1.0
 40
1.0
 40
1.0
 40
1.0
 10
18.004255817
 20
13.9651478155
 30
0.0
 10
18.0075853263
 20
13.9583633114
 30
0.0
 10
18.0137658561
 20
13.9445324459
 30
0.0
 10
18.0215398515
 20
13.9231361301
 30
0.0
 10
18.0278015996
 20
13.9011330441
 30
0.0
 10
18.0341418008
 20
13.870933898
 30
0.0
 10
18.0381651533
 20
13.8318292633
 30
0.0
 10
18.0369650905
 20
13.7920557696
 30
0.0
 10
18.0329777107
 20
13.7598668644
 30
0.0
 10
18.0268575843
 20
13.7269400712
 30
0.0
 10
18.015283877
 20
13.6855088418
 30
0.0
 10
17.9955643582
 20
13.6363946389
 30
0.0
 10
17.9701167537
 20
13.5879710456
 30
0.0
 10
17.9392203039
 20
13.5407531663
 30
0.0
 10
17.9032084793
 20
13.495237297
 30
0.0
 10
17.862467235
 20
13.4519040296
 30
0.0
 10
17.8174338883
 20
13.4112127223
 30
0.0
 10
17.7685818864
 20
13.37359078
 30
0.0
 10
17.6989639619
 20
13.3279945303
 30
0.0
 10
17.6427926202
 20
13.2996590343
 30
0.0
 10
17.6041583605
 20
13.283666777
 30
0.0
  0
SPLINE
  5
413
100
AcDbEntity
  8
0
100
AcDbSpline
 62
7
  6
BYLAYER
 70
0
 71
3
 72
11
 73
7
 74
0
 42
0.0000001
 43
0.0000001
 44
0.0000000001
 40
0.0
 40
0.0
 40
0.0
 40
0.0
 40
0.2567202874
 40
0.5101196385
 40
0.7584003717
 40
1.0
 40
1.0
 40
1.0
 40
1.0
 10
17.6041583605
 20
13.283666777
 30
0.0
 10
17.5805525364
 20
13.2738953872
 30
0.0
 10
17.5327261635
 20
13.2566178387
 30
0.0
 10
17.4595489211
 20
13.2376929249
 30
0.0
 10
17.3863680329
 20
13.2261565005
 30
0.0
 10
17.3375835256
 20
13.2234792955
 30
0.0
 10
17.3135400158
 20
13.2234792955
 30
0.0
  0
SPLINE
  5
414
100
AcDbEntity
  8
02___PRT_ALL_AXES
100
AcDbSpline
 62
7
  6
BYLAYER
 70
0
 71
3
 72
18
 73
14
 74
0
 42
0.0000001
 43
0.0000001
 44
0.0000000001
 40
0.0
 40
0.0
 40
0.0
 40
0.0
 40
0.0328410788
 40
0.0676132805
 40
0.1058832841
 40
0.1487046021
 40
0.1966619251
 40
0.2499802493
 40
0.3722493529
 40
0.5132230757
 40
0.6685783853
 40
0.8328560098
 40
1.0
 40
1.0
 40
1.0
 40
1.0
 10
18.2883703437
 20
12.9201682479
 30
0.0
 10
18.28897635
 20
12.9201681286
 30
0.0
 10
18.2902296869
 20
12.9203429265
 30
0.0
 10
18.2920468418
 20
12.9211078478
 30
0.0
 10
18.2938028838
 20
12.9223513469
 30
0.0
 10
18.2954847141
 20
12.9240503041
 30
0.0
 10
18.2970821081
 20
12.926184386
 30
0.0
 10
18.2991763101
 20
12.9297458806
 30
0.0
 10
18.3014196451
 20
12.9351678089
 30
0.0
 10
18.3034548233
 20
12.9426332264
 30
0.0
 10
18.3048536512
 20
12.9510300256
 30
0.0
 10
18.305553032
 20
12.9599948324
 30
0.0
 10
18.3055313416
 20
12.9661185006
 30
0.0
 10
18.3053932301
 20
12.969199663
 30
0.0
  0
SPLINE
  5
415
100
AcDbEntity
  8
02___PRT_ALL_AXES
100
AcDbSpline
 62
7
  6
BYLAYER
 70
0
 71
3
 72
14
 73
10
 74
0
 42
0.0000001
 43
0.0000001
 44
0.0000000001
 40
0.0
 40
0.0
 40
0.0
 40
0.0
 40
0.0858720494
 40
0.177464953
 40
0.2792897935
 40
0.3942336666
 40
0.5237624258
 40
0.6682599514
 40
1.0
 40
1.0
 40
1.0
 40
1.0
 10
18.425534072
 20
12.6406594053
 30
0.0
 10
18.4261819321
 20
12.6406593835
 30
0.0
 10
18.4275275618
 20
12.640860807
 30
0.0
 10
18.4294669194
 20
12.6417372435
 30
0.0
 10
18.4313311144
 20
12.6431551235
 30
0.0
 10
18.4331062578
 20
12.6450861796
 30
0.0
 10
18.4347801059
 20
12.6475056599
 30
0.0
 10
18.4369546902
 20
12.6515327192
 30
0.0
 10
18.4382171135
 20
12.6549173325
 30
0.0
 10
18.4389560607
 20
12.6573085664
 30
0.0
  0
LINE
  5
416
100
AcDbEntity
  8
02___PRT_ALL_AXES
100
AcDbLine
 62
7
  6
BYLAYER
 10
18.4455595809
 20
12.1939560042
 11
18.4475168022
 21
12.1942445416
  0
SPLINE
  5
417
100
AcDbEntity
  8
02___PRT_ALL_AXES
100
AcDbSpline
 62
7
  6
BYLAYER
 70
0
 71
3
 72
19
 73
15
 74
0
 42
0.0000001
 43
0.0000001
 44
0.0000000001
 40
0.0
 40
0.0
 40
0.0
 40
0.0
 40
0.1393866796
 40
0.2927780429
 40
0.4502723744
 40
0.601482691
 40
0.6716960273
 40
0.7368633404
 40
0.7961296553
 40
0.8488964717
 40
0.89493011
 40
0.934536435
 40
0.9688288018
 40
1.0
 40
1.0
 40
1.0
 40
1.0
 10
18.0390159171
 20
12.0864702276
 30
0.0
 10
18.0400858438
 20
12.0899325115
 30
0.0
 10
18.041721082
 20
12.0973969595
 30
0.0
 10
18.0428456001
 20
12.1090706942
 30
0.0
 10
18.0427101694
 20
12.121105966
 30
0.0
 10
18.0415320382
 20
12.1309120443
 30
0.0
 10
18.0399263393
 20
12.1381932744
 30
0.0
 10
18.0384763808
 20
12.1430471783
 30
0.0
 10
18.0367801936
 20
12.1473378559
 30
0.0
 10
18.0348687278
 20
12.1509866512
 30
0.0
 10
18.0327736077
 20
12.1539297953
 30
0.0
 10
18.030518396
 20
12.1561166138
 30
0.0
 10
18.0281179389
 20
12.1574952656
 30
0.0
 10
18.026404623
 20
12.1578210387
 30
0.0
 10
18.0255942216
 20
12.1578210659
 30
0.0
  0
SPLINE
  5
418
100
AcDbEntity
  8
0
100
AcDbSpline
 62
7
  6
BYLAYER
 70
0
 71
3
 72
34
 73
30
 74
0
 42
0.0000001
 43
0.0000001
 44
0.0000000001
 40
0.0
 40
0.0
 40
0.0
 40
0.0
 40
0.03305408
 40
0.0673899343
 40
0.102882349
 40
0.139398835
 40
0.2149197538
 40
0.2927514709
 40
0.3716143974
 40
0.4110271906
 40
0.4502065662
 40
0.5272116997
 40
0.6013819518
 40
0.6370390667
 40
0.6715585813
 40
0.7048152115
 40
0.7366950967
 40
0.7670978176
 40
0.7959387847
 40
0.8231521618
 40
0.8486945317
 40
0.8725495738
 40
0.8947340777
 40
0.9153055935
 40
0.9343717833
 40
0.9521008175
 40
0.9687305738
 40
0.9845719766
 40
1.0
 40
1.0
 40
1.0
 40
1.0
 10
18.0005957701
 20
12.8576775872
 30
0.0
 10
17.996340176
 20
12.8439064796
 30
0.0
 10
17.9882432528
 20
12.8156485129
 30
0.0
 10
17.9775003371
 20
12.7720813456
 30
0.0
 10
17.9679671543
 20
12.7266894119
 30
0.0
 10
17.9568088673
 20
12.6633227337
 30
0.0
 10
17.9462818214
 20
12.581144971
 30
0.0
 10
17.939162766
 20
12.480085734
 30
0.0
 10
17.9378282696
 20
12.3945345737
 30
0.0
 10
17.9395564583
 20
12.3258886902
 30
0.0
 10
17.9431280571
 20
12.2581251158
 30
0.0
 10
17.9509357432
 20
12.175439874
 30
0.0
 10
17.9633475956
 20
12.0948631271
 30
0.0
 10
17.9759717524
 20
12.0331871755
 30
0.0
 10
17.986534421
 20
11.9893279977
 30
0.0
 10
17.9982625204
 20
11.947473266
 30
0.0
 10
18.0110990142
 20
11.9078263525
 30
0.0
 10
18.0249810805
 20
11.8705797626
 30
0.0
 10
18.0398413063
 20
11.8359136254
 30
0.0
 10
18.0556081147
 20
11.8039948383
 30
0.0
 10
18.0722066069
 20
11.7749761792
 30
0.0
 10
18.0895595846
 20
11.7489956896
 30
0.0
 10
18.107588923
 20
11.7261765175
 30
0.0
 10
18.1262169758
 20
11.7066276639
 30
0.0
 10
18.1453680969
 20
11.6904462538
 30
0.0
 10
18.16496659
 20
11.6777217149
 30
0.0
 10
18.1849355318
 20
11.6685405327
 30
0.0
 10
18.2051705017
 20
11.6629861198
 30
0.0
 10
18.2188360885
 20
11.6617403503
 30
0.0
 10
18.2255636763
 20
11.6617403078
 30
0.0
  0
SPLINE
  5
419
100
AcDbEntity
  8
02___PRT_ALL_AXES
100
AcDbSpline
 62
7
  6
BYLAYER
 70
0
 71
3
 72
22
 73
18
 74
0
 42
0.0000001
 43
0.0000001
 44
0.0000000001
 40
0.0
 40
0.0
 40
0.0
 40
0.0
 40
0.015507359
 40
0.0315171966
 40
0.0666369403
 40
0.1079660869
 40
0.1565812879
 40
0.212593772
 40
0.2754963904
 40
0.3443725486
 40
0.4180235028
 40
0.5738743468
 40
0.7308179692
 40
0.8057963144
 40
0.8764611402
 40
0.9415368517
 40
1.0
 40
1.0
 40
1.0
 40
1.0
 10
18.3367116833
 20
11.8417306589
 30
0.0
 10
18.3371544014
 20
11.8417306661
 30
0.0
 10
18.3380565874
 20
11.8418215302
 30
0.0
 10
18.3398868151
 20
11.8423771758
 30
0.0
 10
18.3421532948
 20
11.8438203313
 30
0.0
 10
18.3445896525
 20
11.8464638992
 30
0.0
 10
18.3468255305
 20
11.8500001891
 30
0.0
 10
18.3488208924
 20
11.8543586601
 30
0.0
 10
18.3505363237
 20
11.8594462402
 30
0.0
 10
18.3519319841
 20
11.8651488356
 30
0.0
 10
18.3533472715
 20
11.8735549983
 30
0.0
 10
18.3540995302
 20
11.8845915085
 30
0.0
 10
18.3535688303
 20
11.8956777876
 30
0.0
 10
18.3523316667
 20
11.9042329498
 30
0.0
 10
18.351053952
 20
11.9101175738
 30
0.0
 10
18.3494447034
 20
11.9154296365
 30
0.0
 10
18.3480978165
 20
11.9186986153
 30
0.0
 10
18.3473625248
 20
11.9201969822
 30
0.0
  0
SPLINE
  5
41A
100
AcDbEntity
  8
02___PRT_ALL_AXES
100
AcDbSpline
 62
7
  6
BYLAYER
 70
0
 71
3
 72
21
 73
17
 74
0
 42
0.0000001
 43
0.0000001
 44
0.0000000001
 40
0.0
 40
0.0
 40
0.0
 40
0.0
 40
0.0533394179
 40
0.1094591246
 40
0.1690662237
 40
0.2323153903
 40
0.3677248548
 40
0.4386062676
 40
0.5100561976
 40
0.5809159487
 40
0.6500790287
 40
0.7793548491
 40
0.8388927127
 40
0.8949536638
 40
0.948249955
 40
1.0
 40
1.0
 40
1.0
 40
1.0
 10
17.5576167011
 20
13.3787894595
 30
0.0
 10
17.5562947908
 20
13.3803144906
 30
0.0
 10
17.5531729656
 20
13.3831076415
 30
0.0
 10
17.5475194587
 20
13.3861992716
 30
0.0
 10
17.5410043792
 20
13.3881977497
 30
0.0
 10
17.5312607039
 20
13.3893564217
 30
0.0
 10
17.5209637432
 20
13.3880703511
 30
0.0
 10
17.5109866373
 20
13.3847111093
 30
0.0
 10
17.5037262621
 20
13.3811381007
 30
0.0
 10
17.4970569223
 20
13.3766685025
 30
0.0
 10
17.4894327879
 20
13.3698827793
 30
0.0
 10
17.4835527485
 20
13.3618350971
 30
0.0
 10
17.4802948301
 20
13.3531073943
 30
0.0
 10
17.4793089053
 20
13.346741149
 30
0.0
 10
17.4797733015
 20
13.3406067913
 30
0.0
 10
17.4810651426
 20
13.3367938281
 30
0.0
 10
17.4819275938
 20
13.3350359253
 30
0.0
  0
SPLINE
  5
41B
100
AcDbEntity
  8
02___PRT_ALL_AXES
100
AcDbSpline
 62
7
  6
BYLAYER
 70
0
 71
3
 72
17
 73
13
 74
0
 42
0.0000001
 43
0.0000001
 44
0.0000000001
 40
0.0
 40
0.0
 40
0.0
 40
0.0
 40
0.1734341554
 40
0.338959186
 40
0.4922122091
 40
0.6294928998
 40
0.748190817
 40
0.8473818977
 40
0.8902154088
 40
0.9292258956
 40
0.9653836888
 40
1.0
 40
1.0
 40
1.0
 40
1.0
 10
18.1797790876
 20
11.839343709
 30
0.0
 10
18.1796618358
 20
11.8419595088
 30
0.0
 10
18.1792531373
 20
11.8470659391
 30
0.0
 10
18.1781027789
 20
11.8544152255
 30
0.0
 10
18.1764631
 20
11.8611121834
 30
0.0
 10
18.1743870555
 20
11.8669465676
 30
0.0
 10
18.1719422797
 20
11.8717373711
 30
0.0
 10
18.1695349024
 20
11.8748999171
 30
0.0
 10
18.1674557629
 20
11.8766893896
 30
0.0
 10
18.1659232008
 20
11.87761718
 30
0.0
 10
18.1643528885
 20
11.8781838741
 30
0.0
 10
18.1632805704
 20
11.8783121204
 30
0.0
 10
18.1627579498
 20
11.8783122233
 30
0.0
  0
SPLINE
  5
41C
100
AcDbEntity
  8
02___PRT_ALL_AXES
100
AcDbSpline
 62
7
  6
BYLAYER
 70
0
 71
3
 72
18
 73
14
 74
0
 42
0.0000001
 43
0.0000001
 44
0.0000000001
 40
0.0
 40
0.0
 40
0.0
 40
0.0
 40
0.0328410788
 40
0.0676132805
 40
0.1058832841
 40
0.1487046021
 40
0.1966619251
 40
0.2499802493
 40
0.3722493529
 40
0.5132230757
 40
0.6685783853
 40
0.8328560098
 40
1.0
 40
1.0
 40
1.0
 40
1.0
 10
18.1627562013
 20
11.7903122939
 30
0.0
 10
18.1633622075
 20
11.7903121746
 30
0.0
 10
18.1646155444
 20
11.7904869725
 30
0.0
 10
18.1664326993
 20
11.7912518938
 30
0.0
 10
18.1681887413
 20
11.7924953929
 30
0.0
 10
18.1698705717
 20
11.7941943501
 30
0.0
 10
18.1714679656
 20
11.796328432
 30
0.0
 10
18.1735621677
 20
11.7998899266
 30
0.0
 10
18.1758055026
 20
11.8053118549
 30
0.0
 10
18.1778406808
 20
11.8127772724
 30
0.0
 10
18.1792395087
 20
11.8211740716
 30
0.0
 10
18.1799388895
 20
11.8301388784
 30
0.0
 10
18.1799171991
 20
11.8362625466
 30
0.0
 10
18.1797790876
 20
11.839343709
 30
0.0
  0
SPLINE
  5
41D
100
AcDbEntity
  8
02___PRT_ALL_AXES
100
AcDbSpline
 62
7
  6
BYLAYER
 70
0
 71
3
 72
14
 73
10
 74
0
 42
0.0000001
 43
0.0000001
 44
0.0000000001
 40
0.0
 40
0.0
 40
0.0
 40
0.0
 40
0.2847983612
 40
0.4197453322
 40
0.5479667608
 40
0.6691315371
 40
0.7837546752
 40
0.8932813447
 40
1.0
 40
1.0
 40
1.0
 40
1.0
 10
17.8873093332
 20
13.864935776
 30
0.0
 10
17.8832523514
 20
13.862203536
 30
0.0
 10
17.8777194957
 20
13.8574062069
 30
0.0
 10
17.8720665873
 20
13.8498487216
 30
0.0
 10
17.8689635654
 20
13.8439878364
 30
0.0
 10
17.8670260763
 20
13.8380073846
 30
0.0
 10
17.8663227788
 20
13.832075507
 30
0.0
 10
17.8668910852
 20
13.8263746027
 30
0.0
 10
17.8681264281
 20
13.8228277558
 30
0.0
 10
17.8689336549
 20
13.8211822631
 30
0.0
  0
SPLINE
  5
41E
100
AcDbEntity
  8
02___PRT_ALL_AXES
100
AcDbSpline
 62
7
  6
BYLAYER
 70
0
 71
3
 72
13
 73
9
 74
0
 42
0.0000001
 43
0.0000001
 44
0.0000000001
 40
0.0
 40
0.0
 40
0.0
 40
0.0
 40
0.315400522
 40
0.5810589302
 40
0.6971077941
 40
0.8038551287
 40
0.9037565427
 40
1.0
 40
1.0
 40
1.0
 40
1.0
 10
18.3473625248
 20
11.9201969822
 30
0.0
 10
18.3466679425
 20
11.9216123922
 30
0.0
 10
18.3452268479
 20
11.9241467898
 30
0.0
 10
18.3429655957
 20
11.9268415468
 30
0.0
 10
18.3410403571
 20
11.9283571475
 30
0.0
 10
18.3396226758
 20
11.9291439195
 30
0.0
 10
18.3381761847
 20
11.9296226919
 30
0.0
 10
18.3371926401
 20
11.9297305452
 30
0.0
 10
18.3367115299
 20
11.9297305374
 30
0.0
  0
SPLINE
  5
41F
100
AcDbEntity
  8
02___PRT_ALL_AXES
100
AcDbSpline
 62
7
  6
BYLAYER
 70
0
 71
3
 72
14
 73
10
 74
0
 42
0.0000001
 43
0.0000001
 44
0.0000000001
 40
0.0
 40
0.0
 40
0.0
 40
0.0
 40
0.0858720494
 40
0.177464953
 40
0.2792897935
 40
0.3942336666
 40
0.5237624258
 40
0.6682599514
 40
1.0
 40
1.0
 40
1.0
 40
1.0
 10
18.0255939284
 20
12.0698210664
 30
0.0
 10
18.0262417886
 20
12.0698210446
 30
0.0
 10
18.0275874182
 20
12.0700224682
 30
0.0
 10
18.0295267758
 20
12.0708989047
 30
0.0
 10
18.0313909709
 20
12.0723167847
 30
0.0
 10
18.0331661142
 20
12.0742478408
 30
0.0
 10
18.0348399624
 20
12.0766673211
 30
0.0
 10
18.0370145467
 20
12.0806943804
 30
0.0
 10
18.03827697
 20
12.0840789937
 30
0.0
 10
18.0390159171
 20
12.0864702276
 30
0.0
  0
SPLINE
  5
420
100
AcDbEntity
  8
02___PRT_ALL_AXES
100
AcDbSpline
 62
7
  6
BYLAYER
 70
0
 71
3
 72
27
 73
23
 74
0
 42
0.0000001
 43
0.0000001
 44
0.0000000001
 40
0.0
 40
0.0
 40
0.0
 40
0.0
 40
0.0365543145
 40
0.0577236384
 40
0.0811775824
 40
0.1070411492
 40
0.1353331506
 40
0.1988579178
 40
0.2706300455
 40
0.3488380637
 40
0.4312678551
 40
0.5154690607
 40
0.5988969118
 40
0.6790476185
 40
0.753596068
 40
0.8205494401
 40
0.8784468499
 40
0.9266705119
 40
0.9473839634
 40
0.9661578409
 40
0.9834724891
 40
1.0
 40
1.0
 40
1.0
 40
1.0
 10
18.4475168022
 20
12.1942445416
 30
0.0
 10
18.4486696355
 20
12.1945853018
 30
0.0
 10
18.4503605395
 20
12.1955778212
 30
0.0
 10
18.4522896277
 20
12.1974241663
 30
0.0
 10
18.4537486657
 20
12.1992348223
 30
0.0
 10
18.4551303863
 20
12.2013848356
 30
0.0
 10
18.456928657
 20
12.20481655
 30
0.0
 10
18.458870379
 20
12.2098520626
 30
0.0
 10
18.4606637556
 20
12.216651098
 30
0.0
 10
18.4619381206
 20
12.2241967409
 30
0.0
 10
18.4626472227
 20
12.2322249881
 30
0.0
 10
18.4627648393
 20
12.2404550234
 30
0.0
 10
18.4622866757
 20
12.2485970278
 30
0.0
 10
18.4612302949
 20
12.2563651701
 30
0.0
 10
18.4596347685
 20
12.2634878709
 30
0.0
 10
18.4575564035
 20
12.2697233226
 30
0.0
 10
18.4550688941
 20
12.2748615061
 30
0.0
 10
18.4525927891
 20
12.2782687204
 30
0.0
 10
18.4504378956
 20
12.2802023709
 30
0.0
 10
18.4488485477
 20
12.2812045433
 30
0.0
 10
18.4472161285
 20
12.2818173269
 30
0.0
 10
18.446098876
 20
12.2819560823
 30
0.0
 10
18.4455553453
 20
12.2819558336
 30
0.0
  0
SPLINE
  5
421
100
AcDbEntity
  8
0
100
AcDbSpline
 62
7
  6
BYLAYER
 70
0
 71
3
 72
18
 73
14
 74
0
 42
0.0000001
 43
0.0000001
 44
0.0000000001
 40
0.0
 40
0.0
 40
0.0
 40
0.0
 40
0.14186634
 40
0.2783893558
 40
0.4093677578
 40
0.4728460678
 40
0.5350251566
 40
0.6557387698
 40
0.7725265042
 40
0.8298949678
 40
0.8867940264
 40
0.9434258821
 40
1.0
 40
1.0
 40
1.0
 40
1.0
 10
17.5328521048
 20
13.9331734756
 30
0.0
 10
17.5443833462
 20
13.9331734756
 30
0.0
 10
17.5670356895
 20
13.9319692878
 30
0.0
 10
17.5999082588
 20
13.9263499005
 30
0.0
 10
17.6257292887
 20
13.9184948851
 30
0.0
 10
17.6449623495
 20
13.9103775926
 30
0.0
 10
17.6628210322
 20
13.9012851186
 30
0.0
 10
17.6832580781
 20
13.8878448167
 30
0.0
 10
17.7009976153
 20
13.8715503557
 30
0.0
 10
17.7130986204
 20
13.857161727
 30
0.0
 10
17.7210960394
 20
13.8457810629
 30
0.0
 10
17.7280294448
 20
13.8337989733
 30
0.0
 10
17.7319224066
 20
13.8254457154
 30
0.0
 10
17.733679276
 20
13.8211960747
 30
0.0
  0
LINE
  5
422
100
AcDbEntity
  8
02___PRT_ALL_AXES
100
AcDbLine
 62
7
  6
BYLAYER
 10
18.0055729482
 20
12.5165246376
 11
18.0075301695
 21
12.5168131749
  0
SPLINE
  5
423
100
AcDbEntity
  8
02___PRT_ALL_AXES
100
AcDbSpline
 62
7
  6
BYLAYER
 70
0
 71
3
 72
19
 73
15
 74
0
 42
0.0000001
 43
0.0000001
 44
0.0000000001
 40
0.0
 40
0.0
 40
0.0
 40
0.0
 40
0.1393866796
 40
0.2927780429
 40
0.4502723744
 40
0.601482691
 40
0.6716960273
 40
0.7368633404
 40
0.7961296553
 40
0.8488964717
 40
0.89493011
 40
0.934536435
 40
0.9688288018
 40
1.0
 40
1.0
 40
1.0
 40
1.0
 10
18.4389560607
 20
12.6573085664
 30
0.0
 10
18.4400259873
 20
12.6607708504
 30
0.0
 10
18.4416612256
 20
12.6682352983
 30
0.0
 10
18.4427857436
 20
12.679909033
 30
0.0
 10
18.442650313
 20
12.6919443048
 30
0.0
 10
18.4414721817
 20
12.7017503831
 30
0.0
 10
18.4398664829
 20
12.7090316132
 30
0.0
 10
18.4384165243
 20
12.7138855171
 30
0.0
 10
18.4367203371
 20
12.7181761948
 30
0.0
 10
18.4348088713
 20
12.7218249901
 30
0.0
 10
18.4327137512
 20
12.7247681341
 30
0.0
 10
18.4304585395
 20
12.7269549526
 30
0.0
 10
18.4280580824
 20
12.7283336044
 30
0.0
 10
18.4263447665
 20
12.7286593775
 30
0.0
 10
18.4255343651
 20
12.7286594047
 30
0.0
  0
SPLINE
  5
424
100
AcDbEntity
  8
02___PRT_ALL_AXES
100
AcDbSpline
 62
7
  6
BYLAYER
 70
0
 71
3
 72
22
 73
18
 74
0
 42
0.0000001
 43
0.0000001
 44
0.0000000001
 40
0.0
 40
0.0
 40
0.0
 40
0.0
 40
0.015507359
 40
0.0315171966
 40
0.0666369403
 40
0.1079660869
 40
0.1565812879
 40
0.212593772
 40
0.2754963904
 40
0.3443725486
 40
0.4180235028
 40
0.5738743468
 40
0.7308179692
 40
0.8057963144
 40
0.8764611402
 40
0.9415368517
 40
1.0
 40
1.0
 40
1.0
 40
1.0
 10
18.1144167637
 20
12.8687499338
 30
0.0
 10
18.1148594817
 20
12.868749941
 30
0.0
 10
18.1157616678
 20
12.8688408051
 30
0.0
 10
18.1175918955
 20
12.8693964507
 30
0.0
 10
18.1198583752
 20
12.8708396062
 30
0.0
 10
18.1222947329
 20
12.873483174
 30
0.0
 10
18.1245306108
 20
12.877019464
 30
0.0
 10
18.1265259728
 20
12.881377935
 30
0.0
 10
18.128241404
 20
12.8864655151
 30
0.0
 10
18.1296370645
 20
12.8921681105
 30
0.0
 10
18.1310523519
 20
12.9005742732
 30
0.0
 10
18.1318046106
 20
12.9116107833
 30
0.0
 10
18.1312739107
 20
12.9226970625
 30
0.0
 10
18.1300367471
 20
12.9312522246
 30
0.0
 10
18.1287590323
 20
12.9371368487
 30
0.0
 10
18.1271497838
 20
12.9424489113
 30
0.0
 10
18.1258028968
 20
12.9457178902
 30
0.0
 10
18.1250676052
 20
12.947216257
 30
0.0
  0
SPLINE
  5
425
100
AcDbEntity
  8
02___PRT_ALL_AXES
100
AcDbSpline
 62
7
  6
BYLAYER
 70
0
 71
3
 72
18
 73
14
 74
0
 42
0.0000001
 43
0.0000001
 44
0.0000000001
 40
0.0
 40
0.0
 40
0.0
 40
0.0
 40
0.1325554506
 40
0.2706978984
 40
0.4098335297
 40
0.545172286
 40
0.672670422
 40
0.7327889014
 40
0.7902840082
 40
0.8452976361
 40
0.8981846984
 40
0.9495078044
 40
1.0
 40
1.0
 40
1.0
 40
1.0
 10
17.1106836772
 20
13.8750307462
 30
0.0
 10
17.1069143548
 20
13.8750307462
 30
0.0
 10
17.0991989338
 20
13.8741203635
 30
0.0
 10
17.0880717536
 20
13.8704289005
 30
0.0
 10
17.0777836151
 20
13.8646320224
 30
0.0
 10
17.0690576616
 20
13.8571324818
 30
0.0
 10
17.0634769329
 20
13.8497220896
 30
0.0
 10
17.0604122595
 20
13.8434416789
 30
0.0
 10
17.0588795899
 20
13.8387600765
 30
0.0
 10
17.0581007947
 20
13.8341022657
 30
0.0
 10
17.0580952998
 20
13.8295522273
 30
0.0
 10
17.0588677919
 20
13.8251980046
 30
0.0
 10
17.0598993659
 20
13.8224712963
 30
0.0
 10
17.0605317246
 20
13.8211822632
 30
0.0
  0
SPLINE
  5
426
100
AcDbEntity
  8
02___PRT_ALL_AXES
100
AcDbSpline
 62
7
  6
BYLAYER
 70
0
 71
3
 72
17
 73
13
 74
0
 42
0.0000001
 43
0.0000001
 44
0.0000000001
 40
0.0
 40
0.0
 40
0.0
 40
0.0
 40
0.1734341554
 40
0.338959186
 40
0.4922122091
 40
0.6294928998
 40
0.748190817
 40
0.8473818977
 40
0.8902154088
 40
0.9292258956
 40
0.9653836888
 40
1.0
 40
1.0
 40
1.0
 40
1.0
 10
18.3053932301
 20
12.969199663
 30
0.0
 10
18.3052759783
 20
12.9718154628
 30
0.0
 10
18.3048672798
 20
12.9769218931
 30
0.0
 10
18.3037169214
 20
12.9842711795
 30
0.0
 10
18.3020772425
 20
12.9909681374
 30
0.0
 10
18.300001198
 20
12.9968025216
 30
0.0
 10
18.2975564222
 20
13.0015933251
 30
0.0
 10
18.2951490448
 20
13.0047558711
 30
0.0
 10
18.2930699054
 20
13.0065453436
 30
0.0
 10
18.2915373433
 20
13.007473134
 30
0.0
 10
18.2899670309
 20
13.0080398281
 30
0.0
 10
18.2888947129
 20
13.0081680744
 30
0.0
 10
18.2883720923
 20
13.0081681773
 30
0.0
  0
SPLINE
  5
427
100
AcDbEntity
  8
0
100
AcDbSpline
 62
7
  6
BYLAYER
 70
0
 71
3
 72
15
 73
11
 74
0
 42
0.0000001
 43
0.0000001
 44
0.0000000001
 40
0.0
 40
0.0
 40
0.0
 40
0.0
 40
0.1639879258
 40
0.315433665
 40
0.4543869286
 40
0.5813401534
 40
0.6973096392
 40
0.8039851405
 40
0.9038198887
 40
1.0
 40
1.0
 40
1.0
 40
1.0
 10
18.3009678065
 20
12.6432465679
 30
0.0
 10
18.2984094087
 20
12.6484600345
 30
0.0
 10
18.2931590667
 20
12.6583328517
 30
0.0
 10
18.2845008192
 20
12.6719186051
 30
0.0
 10
18.275421216
 20
12.6836126842
 30
0.0
 10
18.2659739366
 20
12.6933353483
 30
0.0
 10
18.256208912
 20
12.7010163935
 30
0.0
 10
18.2461733188
 20
12.7065874113
 30
0.0
 10
18.2359324582
 20
12.7099760104
 30
0.0
 10
18.2289695177
 20
12.7107403089
 30
0.0
 10
18.2255634486
 20
12.7107402335
 30
0.0
  0
SPLINE
  5
428
100
AcDbEntity
  8
0
100
AcDbSpline
 62
7
  6
BYLAYER
 70
0
 71
3
 72
11
 73
7
 74
0
 42
0.0000001
 43
0.0000001
 44
0.0000000001
 40
0.0
 40
0.0
 40
0.0
 40
0.0
 40
0.2430026304
 40
0.5000051482
 40
0.7570060799
 40
1.0
 40
1.0
 40
1.0
 40
1.0
 10
17.3676926319
 20
12.8675023445
 30
0.0
 10
17.3651749823
 20
12.8677170243
 30
0.0
 10
17.3599071165
 20
12.8673231248
 30
0.0
 10
17.35239958
 20
12.8647141233
 30
0.0
 10
17.3457426684
 20
12.8603719808
 30
0.0
 10
17.3422081875
 20
12.8564462066
 30
0.0
 10
17.3408376448
 20
12.8543235191
 30
0.0
  0
SPLINE
  5
429
100
AcDbEntity
  8
0
100
AcDbSpline
 62
7
  6
BYLAYER
 70
0
 71
3
 72
22
 73
18
 74
0
 42
0.0000001
 43
0.0000001
 44
0.0000000001
 40
0.0
 40
0.0
 40
0.0
 40
0.0
 40
0.1726685391
 40
0.2539493381
 40
0.3316741629
 40
0.4057410704
 40
0.4760841698
 40
0.542678084
 40
0.6055437131
 40
0.6647580925
 40
0.7204639095
 40
0.7728808776
 40
0.8223183012
 40
0.8691857011
 40
0.9139978696
 40
0.9573703209
 40
1.0
 40
1.0
 40
1.0
 40
1.0
 10
18.0005957701
 20
12.8576775872
 30
0.0
 10
18.0070488754
 20
12.8785598435
 30
0.0
 10
18.0175010034
 20
12.9089959729
 30
0.0
 10
18.0334047492
 20
12.9478602239
 30
0.0
 10
18.0456982896
 20
12.9746899982
 30
0.0
 10
18.0585589763
 20
12.9997063482
 30
0.0
 10
18.0719474447
 20
13.0228317825
 30
0.0
 10
18.0858226193
 20
13.0439945022
 30
0.0
 10
18.1001430102
 20
13.0631289549
 30
0.0
 10
18.1148663503
 20
13.0801758762
 30
0.0
 10
18.1299504025
 20
13.0950818935
 30
0.0
 10
18.1453531252
 20
13.1077987036
 30
0.0
 10
18.161032328
 20
13.1182823402
 30
0.0
 10
18.1769438186
 20
13.1264923517
 30
0.0
 10
18.1930413973
 20
13.1323912187
 30
0.0
 10
18.2092663785
 20
13.1359460598
 30
0.0
 10
18.2201684977
 20
13.1367401974
 30
0.0
 10
18.2255646172
 20
13.1367401634
 30
0.0
  0
SPLINE
  5
42A
100
AcDbEntity
  8
0
100
AcDbSpline
 62
7
  6
BYLAYER
 70
0
 71
3
 72
9
 73
5
 74
0
 42
0.0000001
 43
0.0000001
 44
0.0000000001
 40
0.0
 40
0.0
 40
0.0
 40
0.0
 40
0.4828768984
 40
1.0
 40
1.0
 40
1.0
 40
1.0
 10
17.73547297
 20
12.9708663956
 30
0.0
 10
17.7222462652
 20
12.9790980637
 30
0.0
 10
17.6940891118
 20
12.9949191338
 30
0.0
 10
17.6651002151
 20
13.0090972281
 30
0.0
 10
17.650013588
 20
13.0162208884
 30
0.0
  0
SPLINE
  5
42B
100
AcDbEntity
  8
0
100
AcDbSpline
 62
7
  6
BYLAYER
 70
0
 71
3
 72
11
 73
7
 74
0
 42
0.0000001
 43
0.0000001
 44
0.0000000001
 40
0.0
 40
0.0
 40
0.0
 40
0.0
 40
0.2393030435
 40
0.4828242832
 40
0.7352785346
 40
1.0
 40
1.0
 40
1.0
 40
1.0
 10
17.3262729393
 20
12.8621901284
 30
0.0
 10
17.325825945
 20
12.8630062814
 30
0.0
 10
17.3251028917
 20
12.8647581022
 30
0.0
 10
17.3246037383
 20
12.8675942353
 30
0.0
 10
17.3246940009
 20
12.8705694847
 30
0.0
 10
17.3251309047
 20
12.8725451469
 30
0.0
 10
17.3254348275
 20
12.8735286414
 30
0.0
  0
SPLINE
  5
42C
100
AcDbEntity
  8
0
100
AcDbSpline
 62
7
  6
BYLAYER
 70
0
 71
3
 72
21
 73
17
 74
0
 42
0.0000001
 43
0.0000001
 44
0.0000000001
 40
0.0
 40
0.0
 40
0.0
 40
0.0
 40
0.0513847256
 40
0.1006177777
 40
0.148558046
 40
0.1961549972
 40
0.2443876753
 40
0.2941950057
 40
0.4015640078
 40
0.4606001732
 40
0.5237544253
 40
0.591334901
 40
0.6635464801
 40
0.7405063684
 40
0.8222595894
 40
1.0
 40
1.0
 40
1.0
 40
1.0
 10
17.8384672351
 20
11.8917120087
 30
0.0
 10
17.835299297
 20
11.8897405019
 30
0.0
 10
17.8288498881
 20
11.8862542933
 30
0.0
 10
17.818705502
 20
11.8824792639
 30
0.0
 10
17.8083751053
 20
11.8803172759
 30
0.0
 10
17.7979064608
 20
11.8797870558
 30
0.0
 10
17.7873473007
 20
11.8808935165
 30
0.0
 10
17.7728584796
 20
11.8846273738
 30
0.0
 10
17.7586347334
 20
11.8917099852
 30
0.0
 10
17.74505424
 20
11.9013972051
 30
0.0
 10
17.7346246255
 20
11.9104368316
 30
0.0
 10
17.7243170718
 20
11.9209883933
 30
0.0
 10
17.7141549149
 20
11.9330236847
 30
0.0
 10
17.7041687852
 20
11.9465073264
 30
0.0
 10
17.6907534276
 20
11.96693768
 30
0.0
 10
17.6816339967
 20
11.9834670663
 30
0.0
 10
17.6758328985
 20
11.9949965409
 30
0.0
  0
SPLINE
  5
42D
100
AcDbEntity
  8
0
100
AcDbSpline
 62
7
  6
BYLAYER
 70
0
 71
3
 72
15
 73
11
 74
0
 42
0.0000001
 43
0.0000001
 44
0.0000000001
 40
0.0
 40
0.0
 40
0.0
 40
0.0
 40
0.1030810046
 40
0.2062947221
 40
0.3141961849
 40
0.4303417341
 40
0.5568349541
 40
0.6943908989
 40
0.8425683021
 40
1.0
 40
1.0
 40
1.0
 40
1.0
 10
17.4126042582
 20
12.883901298
 30
0.0
 10
17.413600787
 20
12.8818705189
 30
0.0
 10
17.4150323638
 20
12.8774958775
 30
0.0
 10
17.4151709987
 20
12.8705093807
 30
0.0
 10
17.4133236825
 20
12.8634849818
 30
0.0
 10
17.4096314783
 20
12.8566676616
 30
0.0
 10
17.4042678967
 20
12.8502193149
 30
0.0
 10
17.3974137102
 20
12.8442657623
 30
0.0
 10
17.3892652735
 20
12.8389137723
 30
0.0
 10
17.3832638531
 20
12.8358871468
 30
0.0
 10
17.3801066143
 20
12.8344843972
 30
0.0
  0
SPLINE
  5
42E
100
AcDbEntity
  8
0
100
AcDbSpline
 62
7
  6
BYLAYER
 70
0
 71
3
 72
38
 73
34
 74
0
 42
0.0000001
 43
0.0000001
 44
0.0000000001
 40
0.0
 40
0.0
 40
0.0
 40
0.0
 40
0.0883122632
 40
0.1774292057
 40
0.2662041337
 40
0.3534971771
 40
0.4381874961
 40
0.5191926438
 40
0.595496276
 40
0.6661763177
 40
0.7304315856
 40
0.7599390706
 40
0.7876056073
 40
0.8133742654
 40
0.8371991747
 40
0.8590453186
 40
0.8788896536
 40
0.8967222125
 40
0.912549759
 40
0.9197211277
 40
0.9264087271
 40
0.9326287151
 40
0.9384091519
 40
0.9438001293
 40
0.948894296
 40
0.9538658233
 40
0.9590372426
 40
0.9649779526
 40
0.9726497899
 40
0.9776030829
 40
0.9836464161
 40
0.9910648632
 40
1.0
 40
1.0
 40
1.0
 40
1.0
 10
17.6291456798
 20
12.2876801748
 30
0.0
 10
17.6296470541
 20
12.3084232325
 30
0.0
 10
17.6316020445
 20
12.350078772
 30
0.0
 10
17.6368308224
 20
12.4124155132
 30
0.0
 10
17.6439490856
 20
12.4743219254
 30
0.0
 10
17.6525584329
 20
12.5349858781
 30
0.0
 10
17.6623035443
 20
12.5936269847
 30
0.0
 10
17.6728925277
 20
12.6494952436
 30
0.0
 10
17.6840511393
 20
12.7018911722
 30
0.0
 10
17.6954943431
 20
12.7501893703
 30
0.0
 10
17.7053156852
 20
12.7875611935
 30
0.0
 10
17.7131306089
 20
12.8150008237
 30
0.0
 10
17.7187249965
 20
12.8336687445
 30
0.0
 10
17.7241759058
 20
12.8509839851
 30
0.0
 10
17.729432319
 20
12.8669250942
 30
0.0
 10
17.734439785
 20
12.8814811927
 30
0.0
 10
17.7391384846
 20
12.8946535254
 30
0.0
 10
17.7434478831
 20
12.9064626948
 30
0.0
 10
17.7467300218
 20
12.9154774366
 30
0.0
 10
17.749018338
 20
12.9220664946
 30
0.0
 10
17.7504851509
 20
12.9265506754
 30
0.0
 10
17.7517261695
 20
12.9307634365
 30
0.0
 10
17.7526986124
 20
12.9347343659
 30
0.0
 10
17.7533462584
 20
12.9385052676
 30
0.0
 10
17.7535866591
 20
12.9421380909
 30
0.0
 10
17.7532870464
 20
12.9457235173
 30
0.0
 10
17.7522244431
 20
12.9493809025
 30
0.0
 10
17.7500491957
 20
12.9532623634
 30
0.0
 10
17.7471567386
 20
12.9565613941
 30
0.0
 10
17.7439263312
 20
12.9595302428
 30
0.0
 10
17.7405527443
 20
12.9622444185
 30
0.0
 10
17.7362837879
 20
12.9653238914
 30
0.0
 10
17.733076957
 20
12.9674422952
 30
0.0
 10
17.7313084071
 20
12.9685734005
 30
0.0
  0
SPLINE
  5
42F
100
AcDbEntity
  8
03___PRT_ALL_CURVES
100
AcDbSpline
 62
7
  6
BYLAYER
 70
0
 71
3
 72
44
 73
40
 74
0
 42
0.0000001
 43
0.0000001
 44
0.0000000001
 40
0.0
 40
0.0
 40
0.0
 40
0.0
 40
0.0625
 40
0.09375
 40
0.125
 40
0.140625
 40
0.15625
 40
0.1640625
 40
0.171875
 40
0.1875
 40
0.21875
 40
0.25
 40
0.3125
 40
0.375
 40
0.4375
 40
0.5
 40
0.5625
 40
0.59375
 40
0.625
 40
0.640625
 40
0.65625
 40
0.6640625
 40
0.671875
 40
0.6875
 40
0.71875
 40
0.75
 40
0.78125
 40
0.796875
 40
0.8125
 40
0.8203125
 40
0.828125
 40
0.83203125
 40
0.8359375
 40
0.84375
 40
0.859375
 40
0.875
 40
0.90625
 40
0.9375
 40
1.0
 40
1.0
 40
1.0
 40
1.0
 10
18.0086508903
 20
12.1070968762
 30
0.0
 10
18.0087507737
 20
12.1066529602
 30
0.0
 10
18.0089006709
 20
12.1059867842
 30
0.0
 10
18.0091002453
 20
12.1050997577
 30
0.0
 10
18.0092255804
 20
12.1045428491
 30
0.0
 10
18.009324478
 20
12.1041030611
 30
0.0
 10
18.0093894146
 20
12.1038151049
 30
0.0
 10
18.009434205
 20
12.1036147182
 30
0.0
 10
18.0095051308
 20
12.1033048895
 30
0.0
 10
18.0096413976
 20
12.102711857
 30
0.0
 10
18.0098296873
 20
12.1018911292
 30
0.0
 10
18.0101347468
 20
12.1005635293
 30
0.0
 10
18.0105131104
 20
12.0989064484
 30
0.0
 10
18.0109756638
 20
12.0969279937
 30
0.0
 10
18.0114412051
 20
12.0949550102
 30
0.0
 10
18.0119024373
 20
12.0929748553
 30
0.0
 10
18.012298671
 20
12.0913440715
 30
0.0
 10
18.0126134024
 20
12.0900343847
 30
0.0
 10
18.0128098117
 20
12.0892188072
 30
0.0
 10
18.0129682177
 20
12.0885604659
 30
0.0
 10
18.0130641741
 20
12.0881622123
 30
0.0
 10
18.0131479332
 20
12.087813376
 30
0.0
 10
18.0132061541
 20
12.087574906
 30
0.0
 10
18.0132961739
 20
12.0872088652
 30
0.0
 10
18.0134309866
 20
12.0866591039
 30
0.0
 10
18.0135900637
 20
12.0860110354
 30
0.0
 10
18.0137233376
 20
12.0854679559
 30
0.0
 10
18.0138296026
 20
12.0850349236
 30
0.0
 10
18.0138965488
 20
12.0847622114
 30
0.0
 10
18.0139489209
 20
12.0845486447
 30
0.0
 10
18.0139843503
 20
12.0844046913
 30
0.0
 10
18.0140065177
 20
12.0843135159
 30
0.0
 10
18.0140512321
 20
12.0841347707
 30
0.0
 10
18.0141399564
 20
12.0837812867
 30
0.0
 10
18.0142612406
 20
12.0832975342
 30
0.0
 10
18.0144583494
 20
12.0825116687
 30
0.0
 10
18.0147036891
 20
12.0815333999
 30
0.0
 10
18.0150968201
 20
12.0799658888
 30
0.0
 10
18.0153915362
 20
12.0787907688
 30
0.0
 10
18.015588043
 20
12.0780072413
 30
0.0
  0
SPLINE
  5
430
100
AcDbEntity
  8
03___PRT_ALL_CURVES
100
AcDbSpline
 62
7
  6
BYLAYER
 70
0
 71
3
 72
49
 73
45
 74
0
 42
0.0000001
 43
0.0000001
 44
0.0000000001
 40
0.0
 40
0.0
 40
0.0
 40
0.0
 40
0.0625
 40
0.125
 40
0.15625
 40
0.171875
 40
0.1875
 40
0.21875
 40
0.25
 40
0.28125
 40
0.3125
 40
0.328125
 40
0.34375
 40
0.375
 40
0.40625
 40
0.4375
 40
0.46875
 40
0.484375
 40
0.4921875
 40
0.5
 40
0.5078125
 40
0.515625
 40
0.53125
 40
0.5625
 40
0.59375
 40
0.625
 40
0.640625
 40
0.65625
 40
0.6640625
 40
0.671875
 40
0.6875
 40
0.71875
 40
0.75
 40
0.78125
 40
0.8125
 40
0.8203125
 40
0.828125
 40
0.8359375
 40
0.84375
 40
0.859375
 40
0.875
 40
0.90625
 40
0.9375
 40
1.0
 40
1.0
 40
1.0
 40
1.0
 10
17.5752137114
 20
14.0702556848
 30
0.0
 10
17.5725250564
 20
14.0702001582
 30
0.0
 10
17.5671482668
 20
14.0700911745
 30
0.0
 10
17.5604246771
 20
14.0699445974
 30
0.0
 10
17.5557229469
 20
14.069861007
 30
0.0
 10
17.553028826
 20
14.0697837506
 30
0.0
 10
17.5503067582
 20
14.0695953714
 30
0.0
 10
17.5469138115
 20
14.0693982773
 30
0.0
 10
17.5428379329
 20
14.0691442247
 30
0.0
 10
17.5387640034
 20
14.0688989231
 30
0.0
 10
17.5353661838
 20
14.0686799517
 30
0.0
 10
17.5326538618
 20
14.0685353271
 30
0.0
 10
17.5299201076
 20
14.0682801353
 30
0.0
 10
17.5264956504
 20
14.0679232852
 30
0.0
 10
17.5223890836
 20
14.0675110759
 30
0.0
 10
17.5182830126
 20
14.0670953999
 30
0.0
 10
17.514857316
 20
14.0667472165
 30
0.0
 10
17.5124674501
 20
14.0665087569
 30
0.0
 10
17.5110890807
 20
14.0663639982
 30
0.0
 10
17.5100911783
 20
14.066279412
 30
0.0
 10
17.5089561435
 20
14.0661031424
 30
0.0
 10
17.507490599
 20
14.0659000957
 30
0.0
 10
17.5049035896
 20
14.0655298724
 30
0.0
 10
17.5012196788
 20
14.0650087018
 30
0.0
 10
17.4967932512
 20
14.0643802795
 30
0.0
 10
17.493107921
 20
14.0638563594
 30
0.0
 10
17.4901544613
 20
14.063439296
 30
0.0
 10
17.4883198582
 20
14.0631735671
 30
0.0
 10
17.4868263325
 20
14.0629726199
 30
0.0
 10
17.4854271323
 20
14.0627291806
 30
0.0
 10
17.483022361
 20
14.0622834229
 30
0.0
 10
17.4795640178
 20
14.061656918
 30
0.0
 10
17.4754240124
 20
14.060900829
 30
0.0
 10
17.4712807104
 20
14.0601454056
 30
0.0
 10
17.468175619
 20
14.0595800534
 30
0.0
 10
17.466102613
 20
14.0592009184
 30
0.0
 10
17.465071205
 20
14.059015413
 30
0.0
 10
17.4640200062
 20
14.0588141057
 30
0.0
 10
17.4625242462
 20
14.0584705046
 30
0.0
 10
17.4606867871
 20
14.0580667486
 30
0.0
 10
17.4577288345
 20
14.057406351
 30
0.0
 10
17.4540375657
 20
14.0565857826
 30
0.0
 10
17.4481280708
 20
14.0552701063
 30
0.0
 10
17.4436967291
 20
14.0542839716
 30
0.0
 10
17.4407423282
 20
14.0536264101
 30
0.0
  0
SPLINE
  5
431
100
AcDbEntity
  8
03___PRT_ALL_CURVES
100
AcDbSpline
 62
7
  6
BYLAYER
 70
0
 71
3
 72
107
 73
103
 74
0
 42
0.0000001
 43
0.0000001
 44
0.0000000001
 40
0.0
 40
0.0
 40
0.0
 40
0.0
 40
0.0625
 40
0.09375
 40
0.109375
 40
0.125
 40
0.140625
 40
0.1484375
 40
0.15625
 40
0.16015625
 40
0.1640625
 40
0.166015625
 40
0.1669921875
 40
0.16796875
 40
0.169921875
 40
0.171875
 40
0.1796875
 40
0.1875
 40
0.1953125
 40
0.203125
 40
0.21875
 40
0.25
 40
0.28125
 40
0.296875
 40
0.3046875
 40
0.3125
 40
0.3203125
 40
0.328125
 40
0.330078125
 40
0.33203125
 40
0.3330078125
 40
0.333984375
 40
0.3359375
 40
0.33984375
 40
0.34375
 40
0.3515625
 40
0.359375
 40
0.375
 40
0.390625
 40
0.40625
 40
0.421875
 40
0.4375
 40
0.453125
 40
0.46875
 40
0.4765625
 40
0.484375
 40
0.48828125
 40
0.4921875
 40
0.49609375
 40
0.498046875
 40
0.4990234375
 40
0.5
 40
0.5009765625
 40
0.501953125
 40
0.50390625
 40
0.5078125
 40
0.51171875
 40
0.515625
 40
0.5234375
 40
0.53125
 40
0.546875
 40
0.5625
 40
0.578125
 40
0.59375
 40
0.609375
 40
0.625
 40
0.640625
 40
0.6484375
 40
0.65625
 40
0.66015625
 40
0.6640625
 40
0.666015625
 40
0.6669921875
 40
0.66796875
 40
0.669921875
 40
0.671875
 40
0.6796875
 40
0.6875
 40
0.6953125
 40
0.703125
 40
0.71875
 40
0.75
 40
0.78125
 40
0.796875
 40
0.8046875
 40
0.8125
 40
0.8203125
 40
0.828125
 40
0.830078125
 40
0.83203125
 40
0.8330078125
 40
0.833984375
 40
0.8359375
 40
0.83984375
 40
0.84375
 40
0.8515625
 40
0.859375
 40
0.875
 40
0.890625
 40
0.90625
 40
0.9375
 40
1.0
 40
1.0
 40
1.0
 40
1.0
 10
17.4407423289
 20
14.0536264103
 30
0.0
 10
17.4317415611
 20
14.0508566434
 30
0.0
 10
17.4182404107
 20
14.0467019882
 30
0.0
 10
17.4024890641
 20
14.0418549072
 30
0.0
 10
17.3934883011
 20
14.0390851228
 30
0.0
 10
17.3867377106
 20
14.0370078513
 30
0.0
 10
17.3811122768
 20
14.0352765789
 30
0.0
 10
17.3766117988
 20
14.0338920383
 30
0.0
 10
17.3737992984
 20
14.0330256135
 30
0.0
 10
17.3715486148
 20
14.0323349629
 30
0.0
 10
17.3701434967
 20
14.0318976267
 30
0.0
 10
17.3691567892
 20
14.0316028741
 30
0.0
 10
17.3685978454
 20
14.0314166345
 30
0.0
 10
17.3680573164
 20
14.0311633157
 30
0.0
 10
17.3673753608
 20
14.0308695951
 30
0.0
 10
17.3657438479
 20
14.030145795
 30
0.0
 10
17.3632944028
 20
14.0290680207
 30
0.0
 10
17.3600297195
 20
14.0276264582
 30
0.0
 10
17.3567647036
 20
14.0261861075
 30
0.0
 10
17.352411465
 20
14.024265217
 30
0.0
 10
17.3447932432
 20
14.020903857
 30
0.0
 10
17.3339101007
 20
14.0161018008
 30
0.0
 10
17.3230269356
 20
14.0112998205
 30
0.0
 10
17.3154087454
 20
14.007938354
 30
0.0
 10
17.3110554571
 20
14.006017631
 30
0.0
 10
17.3077905938
 20
14.0045767669
 30
0.0
 10
17.3045253374
 20
14.0031371324
 30
0.0
 10
17.302077497
 20
14.002053959
 30
0.0
 10
17.3004438898
 20
14.0013372051
 30
0.0
 10
17.2997657701
 20
14.0010305792
 30
0.0
 10
17.2992173258
 20
14.0008038905
 30
0.0
 10
17.2986906353
 20
14.0005091366
 30
0.0
 10
17.2977790342
 20
13.9999616927
 30
0.0
 10
17.2964714735
 20
13.9991961301
 30
0.0
 10
17.2943823234
 20
13.9979620089
 30
0.0
 10
17.2917698766
 20
13.9964225146
 30
0.0
 10
17.2875905258
 20
13.9939575593
 30
0.0
 10
17.2823661437
 20
13.9908769706
 30
0.0
 10
17.2760969683
 20
13.9871800046
 30
0.0
 10
17.2698277705
 20
13.9834831082
 30
0.0
 10
17.2635585791
 20
13.9797861928
 30
0.0
 10
17.2572893842
 20
13.9760892839
 30
0.0
 10
17.2510201969
 20
13.9723923678
 30
0.0
 10
17.2457958519
 20
13.9693116229
 30
0.0
 10
17.2416164255
 20
13.9668469863
 30
0.0
 10
17.2390041712
 20
13.9653066808
 30
0.0
 10
17.236914626
 20
13.9640742249
 30
0.0
 10
17.23534676
 20
13.9631504621
 30
0.0
 10
17.2340424546
 20
13.9623788174
 30
0.0
 10
17.233125026
 20
13.9618422817
 30
0.0
 10
17.2326076744
 20
13.9615300445
 30
0.0
 10
17.232200242
 20
13.9613117696
 30
0.0
 10
17.231867038
 20
13.9610327054
 30
0.0
 10
17.2313968742
 20
13.9606818238
 30
0.0
 10
17.2305861511
 20
13.9600579016
 30
0.0
 10
17.2294216683
 20
13.9591717492
 30
0.0
 10
17.2280269885
 20
13.9581061556
 30
0.0
 10
17.2261664725
 20
13.9566861363
 30
0.0
 10
17.2238411503
 20
13.9549108478
 30
0.0
 10
17.2201204545
 20
13.9520705339
 30
0.0
 10
17.2154696466
 20
13.9485200907
 30
0.0
 10
17.2098886504
 20
13.944259581
 30
0.0
 10
17.2043076624
 20
13.9399990645
 30
0.0
 10
17.1987266682
 20
13.9357385528
 30
0.0
 10
17.1931456904
 20
13.9314780287
 30
0.0
 10
17.1875646533
 20
13.9272175495
 30
0.0
 10
17.182913973
 20
13.9236670109
 30
0.0
 10
17.1791930169
 20
13.9208268918
 30
0.0
 10
17.1768683571
 20
13.9190511075
 30
0.0
 10
17.1750064816
 20
13.9176321058
 30
0.0
 10
17.1738477097
 20
13.9167415202
 30
0.0
 10
17.1730267487
 20
13.9161255447
 30
0.0
 10
17.1725729933
 20
13.9157619269
 30
0.0
 10
17.172177111
 20
13.9153544982
 30
0.0
 10
17.1716624769
 20
13.914860187
 30
0.0
 10
17.1704436359
 20
13.9136615154
 30
0.0
 10
17.1686085362
 20
13.9118686845
 30
0.0
 10
17.166165645
 20
13.9094752847
 30
0.0
 10
17.1637217083
 20
13.9070826762
 30
0.0
 10
17.1604634908
 20
13.9038922555
 30
0.0
 10
17.1547614391
 20
13.8983091487
 30
0.0
 10
17.1466157493
 20
13.8903332079
 30
0.0
 10
17.1384699923
 20
13.8823573164
 30
0.0
 10
17.1327680346
 20
13.8767741406
 30
0.0
 10
17.1295096694
 20
13.8735838284
 30
0.0
 10
17.1270661859
 20
13.8711908871
 30
0.0
 10
17.1246215926
 20
13.8687987371
 30
0.0
 10
17.1227912593
 20
13.8670024062
 30
0.0
 10
17.1215661977
 20
13.8658083024
 30
0.0
 10
17.1210629568
 20
13.8653056252
 30
0.0
 10
17.1206435647
 20
13.8649154599
 30
0.0
 10
17.1202856088
 20
13.8644814958
 30
0.0
 10
17.1196877309
 20
13.8637017087
 30
0.0
 10
17.1188187263
 20
13.8625983448
 30
0.0
 10
17.117436642
 20
13.8608270288
 30
0.0
 10
17.1157061869
 20
13.8586149155
 30
0.0
 10
17.1129390514
 20
13.8550743988
 30
0.0
 10
17.1094795855
 20
13.8506491425
 30
0.0
 10
17.1053284604
 20
13.8453386682
 30
0.0
 10
17.0997935453
 20
13.8382580939
 30
0.0
 10
17.0901074821
 20
13.8258670617
 30
0.0
 10
17.0818051291
 20
13.8152461863
 30
0.0
 10
17.07627023
 20
13.8081656006
 30
0.0
  0
SPLINE
  5
432
100
AcDbEntity
  8
03___PRT_ALL_CURVES
100
AcDbSpline
 62
7
  6
BYLAYER
 70
0
 71
3
 72
95
 73
91
 74
0
 42
0.0000001
 43
0.0000001
 44
0.0000000001
 40
0.0
 40
0.0
 40
0.0
 40
0.0
 40
0.0625
 40
0.09375
 40
0.109375
 40
0.125
 40
0.140625
 40
0.1484375
 40
0.15625
 40
0.16015625
 40
0.1640625
 40
0.166015625
 40
0.16796875
 40
0.171875
 40
0.1796875
 40
0.1875
 40
0.203125
 40
0.21875
 40
0.25
 40
0.28125
 40
0.296875
 40
0.3125
 40
0.3203125
 40
0.328125
 40
0.33203125
 40
0.333984375
 40
0.3359375
 40
0.33984375
 40
0.34375
 40
0.3515625
 40
0.359375
 40
0.375
 40
0.390625
 40
0.40625
 40
0.421875
 40
0.4375
 40
0.453125
 40
0.46875
 40
0.4765625
 40
0.484375
 40
0.4921875
 40
0.49609375
 40
0.498046875
 40
0.5
 40
0.501953125
 40
0.50390625
 40
0.5078125
 40
0.515625
 40
0.5234375
 40
0.53125
 40
0.546875
 40
0.5625
 40
0.578125
 40
0.59375
 40
0.609375
 40
0.625
 40
0.640625
 40
0.6484375
 40
0.65625
 40
0.66015625
 40
0.6640625
 40
0.666015625
 40
0.66796875
 40
0.669921875
 40
0.671875
 40
0.6796875
 40
0.6875
 40
0.6953125
 40
0.703125
 40
0.71875
 40
0.75
 40
0.78125
 40
0.796875
 40
0.8046875
 40
0.8125
 40
0.8203125
 40
0.828125
 40
0.830078125
 40
0.83203125
 40
0.833984375
 40
0.8359375
 40
0.83984375
 40
0.84375
 40
0.8515625
 40
0.859375
 40
0.875
 40
0.890625
 40
0.90625
 40
0.9375
 40
1.0
 40
1.0
 40
1.0
 40
1.0
 10
17.0762702312
 20
13.8081656024
 30
0.0
 10
17.0728194239
 20
13.8023285148
 30
0.0
 10
17.0676432237
 20
13.7935728818
 30
0.0
 10
17.0616042858
 20
13.7833579823
 30
0.0
 10
17.058153518
 20
13.7775208886
 30
0.0
 10
17.0555652913
 20
13.7731430916
 30
0.0
 10
17.0534089163
 20
13.7694948534
 30
0.0
 10
17.0516827382
 20
13.7665764287
 30
0.0
 10
17.0506063319
 20
13.7647520357
 30
0.0
 10
17.0497395843
 20
13.763293386
 30
0.0
 10
17.0492106961
 20
13.762379757
 30
0.0
 10
17.0487582015
 20
13.7616533727
 30
0.0
 10
17.0484129797
 20
13.7609104913
 30
0.0
 10
17.0478586743
 20
13.7596027852
 30
0.0
 10
17.0470408092
 20
13.7577386322
 30
0.0
 10
17.0457467556
 20
13.7547537527
 30
0.0
 10
17.0441242112
 20
13.751023419
 30
0.0
 10
17.0415309345
 20
13.7450544544
 30
0.0
 10
17.0382882898
 20
13.7375934164
 30
0.0
 10
17.0350463477
 20
13.7301322456
 30
0.0
 10
17.0324519467
 20
13.7241634935
 30
0.0
 10
17.0308322132
 20
13.7204326285
 30
0.0
 10
17.0295323971
 20
13.7174488382
 30
0.0
 10
17.0287292019
 20
13.7155819126
 30
0.0
 10
17.0281485479
 20
13.7142791863
 30
0.0
 10
17.0278455612
 20
13.7135283227
 30
0.0
 10
17.0276511274
 20
13.7127531661
 30
0.0
 10
17.0273709169
 20
13.7117925383
 30
0.0
 10
17.0269433514
 20
13.7102508853
 30
0.0
 10
17.0264017824
 20
13.7083254108
 30
0.0
 10
17.025539247
 20
13.7052437619
 30
0.0
 10
17.0244597136
 20
13.7013920061
 30
0.0
 10
17.0231648588
 20
13.6967697683
 30
0.0
 10
17.0218698457
 20
13.6921475652
 30
0.0
 10
17.0205748804
 20
13.687525354
 30
0.0
 10
17.0192798824
 20
13.6829031404
 30
0.0
 10
17.0179849673
 20
13.6782809449
 30
0.0
 10
17.0169056221
 20
13.6744290569
 30
0.0
 10
17.0160427029
 20
13.6713476776
 30
0.0
 10
17.0153939924
 20
13.6690362848
 30
0.0
 10
17.0148582384
 20
13.6671112641
 30
0.0
 10
17.014473716
 20
13.6657615123
 30
0.0
 10
17.014268814
 20
13.6649937191
 30
0.0
 10
17.014073375
 20
13.6644080328
 30
0.0
 10
17.0140375736
 20
13.6638599651
 30
0.0
 10
17.013934155
 20
13.6631160864
 30
0.0
 10
17.0137791163
 20
13.6618204123
 30
0.0
 10
17.0135440688
 20
13.6599662529
 30
0.0
 10
17.0132678175
 20
13.6577426299
 30
0.0
 10
17.0128974544
 20
13.6547773213
 30
0.0
 10
17.0124351966
 20
13.6510708495
 30
0.0
 10
17.011880188
 20
13.646623013
 30
0.0
 10
17.0113252626
 20
13.6421751954
 30
0.0
 10
17.0107703037
 20
13.6377273726
 30
0.0
 10
17.0102153957
 20
13.6332795518
 30
0.0
 10
17.0096603172
 20
13.6288317278
 30
0.0
 10
17.0091982779
 20
13.625125217
 30
0.0
 10
17.0088274691
 20
13.622159988
 30
0.0
 10
17.0085983939
 20
13.6203067663
 30
0.0
 10
17.0084089953
 20
13.6188240825
 30
0.0
 10
17.0083046272
 20
13.6178976479
 30
0.0
 10
17.008189053
 20
13.6171559443
 30
0.0
 10
17.0081902079
 20
13.6166011884
 30
0.0
 10
17.0082159761
 20
13.616046859
 30
0.0
 10
17.0082548513
 20
13.6149379807
 30
0.0
 10
17.0083184819
 20
13.6132747554
 30
0.0
 10
17.0084002833
 20
13.611057069
 30
0.0
 10
17.0084828977
 20
13.6088393968
 30
0.0
 10
17.0085927666
 20
13.6058824954
 30
0.0
 10
17.0087851702
 20
13.6007079207
 30
0.0
 10
17.0090599563
 20
13.5933156678
 30
0.0
 10
17.0093347938
 20
13.5859234229
 30
0.0
 10
17.0095271254
 20
13.580748837
 30
0.0
 10
17.0096371075
 20
13.5777919531
 30
0.0
 10
17.0097193748
 20
13.5755742275
 30
0.0
 10
17.0098024798
 20
13.5733567413
 30
0.0
 10
17.00986246
 20
13.5716929556
 30
0.0
 10
17.0099060992
 20
13.5705848087
 30
0.0
 10
17.0099213968
 20
13.5700288718
 30
0.0
 10
17.0099620521
 20
13.56948018
 30
0.0
 10
17.0101369157
 20
13.5687830643
 30
0.0
 10
17.0103141827
 20
13.5678998661
 30
0.0
 10
17.0106208973
 20
13.5664933454
 30
0.0
 10
17.0109963853
 20
13.5647329359
 30
0.0
 10
17.0116015844
 20
13.561917543
 30
0.0
 10
17.0123565673
 20
13.5583978688
 30
0.0
 10
17.0132631957
 20
13.5541744451
 30
0.0
 10
17.0144718071
 20
13.5485431488
 30
0.0
 10
17.0165869833
 20
13.5386884107
 30
0.0
 10
17.018399955
 20
13.5302414819
 30
0.0
 10
17.0196086109
 20
13.5246101984
 30
0.0
  0
SPLINE
  5
433
100
AcDbEntity
  8
03___PRT_ALL_CURVES
100
AcDbSpline
 62
7
  6
BYLAYER
 70
0
 71
3
 72
40
 73
36
 74
0
 42
0.0000001
 43
0.0000001
 44
0.0000000001
 40
0.0
 40
0.0
 40
0.0
 40
0.0
 40
0.0625
 40
0.125
 40
0.140625
 40
0.15625
 40
0.1640625
 40
0.171875
 40
0.1875
 40
0.21875
 40
0.25
 40
0.3125
 40
0.375
 40
0.4375
 40
0.5
 40
0.5625
 40
0.625
 40
0.640625
 40
0.65625
 40
0.6640625
 40
0.671875
 40
0.6875
 40
0.71875
 40
0.75
 40
0.78125
 40
0.8125
 40
0.8203125
 40
0.828125
 40
0.8359375
 40
0.84375
 40
0.859375
 40
0.875
 40
0.90625
 40
0.9375
 40
1.0
 40
1.0
 40
1.0
 40
1.0
 10
17.0196086097
 20
13.5246102023
 30
0.0
 10
17.0198403418
 20
13.5238955184
 30
0.0
 10
17.0203033916
 20
13.5224669619
 30
0.0
 10
17.0208261873
 20
13.5208561845
 30
0.0
 10
17.0211719985
 20
13.5197876578
 30
0.0
 10
17.0213201007
 20
13.5193345777
 30
0.0
 10
17.0214292203
 20
13.5189904468
 30
0.0
 10
17.0215725771
 20
13.5185792716
 30
0.0
 10
17.0218394068
 20
13.5178285853
 30
0.0
 10
17.0222119149
 20
13.5167722681
 30
0.0
 10
17.0228148362
 20
13.5150740443
 30
0.0
 10
17.0235513839
 20
13.5129477702
 30
0.0
 10
17.0245069776
 20
13.5104251882
 30
0.0
 10
17.0254901005
 20
13.5079148351
 30
0.0
 10
17.0264349242
 20
13.5053878323
 30
0.0
 10
17.0275054154
 20
13.5029151993
 30
0.0
 10
17.0282810842
 20
13.5010527956
 30
0.0
 10
17.0288042583
 20
13.4998074176
 30
0.0
 10
17.0290197003
 20
13.4992970051
 30
0.0
 10
17.029197561
 20
13.4988686647
 30
0.0
 10
17.0293554312
 20
13.49851357
 30
0.0
 10
17.0296224181
 20
13.4979261998
 30
0.0
 10
17.0300087077
 20
13.4970692568
 30
0.0
 10
17.0304700577
 20
13.4960487518
 30
0.0
 10
17.03093239
 20
13.4950254889
 30
0.0
 10
17.0312778405
 20
13.4942604452
 30
0.0
 10
17.0315099984
 20
13.4937472722
 30
0.0
 10
17.0316227952
 20
13.4934961724
 30
0.0
 10
17.0317483492
 20
13.4932237547
 30
0.0
 10
17.031976455
 20
13.4927591027
 30
0.0
 10
17.0322408035
 20
13.4922130167
 30
0.0
 10
17.0326753762
 20
13.4913198705
 30
0.0
 10
17.0332146133
 20
13.4902100861
 30
0.0
 10
17.0340796265
 20
13.4884306986
 30
0.0
 10
17.0347278837
 20
13.4870969978
 30
0.0
 10
17.0351601669
 20
13.4862076773
 30
0.0
  0
SPLINE
  5
434
100
AcDbEntity
  8
03___PRT_ALL_CURVES
100
AcDbSpline
 62
7
  6
BYLAYER
 70
0
 71
3
 72
90
 73
86
 74
0
 42
0.0000001
 43
0.0000001
 44
0.0000000001
 40
0.0
 40
0.0
 40
0.0
 40
0.0
 40
0.0625
 40
0.09375
 40
0.109375
 40
0.125
 40
0.140625
 40
0.1484375
 40
0.15625
 40
0.16015625
 40
0.1640625
 40
0.166015625
 40
0.16796875
 40
0.171875
 40
0.1796875
 40
0.1875
 40
0.203125
 40
0.21875
 40
0.25
 40
0.28125
 40
0.296875
 40
0.3125
 40
0.3203125
 40
0.328125
 40
0.33203125
 40
0.333984375
 40
0.3359375
 40
0.33984375
 40
0.34375
 40
0.3515625
 40
0.359375
 40
0.375
 40
0.390625
 40
0.40625
 40
0.421875
 40
0.4375
 40
0.453125
 40
0.46875
 40
0.4765625
 40
0.484375
 40
0.4921875
 40
0.49609375
 40
0.498046875
 40
0.5
 40
0.501953125
 40
0.50390625
 40
0.5078125
 40
0.515625
 40
0.5234375
 40
0.53125
 40
0.546875
 40
0.5625
 40
0.578125
 40
0.59375
 40
0.609375
 40
0.625
 40
0.640625
 40
0.6484375
 40
0.65625
 40
0.66015625
 40
0.6640625
 40
0.666015625
 40
0.66796875
 40
0.671875
 40
0.6796875
 40
0.6875
 40
0.703125
 40
0.71875
 40
0.75
 40
0.78125
 40
0.796875
 40
0.8125
 40
0.8203125
 40
0.828125
 40
0.83203125
 40
0.833984375
 40
0.8359375
 40
0.83984375
 40
0.84375
 40
0.859375
 40
0.875
 40
0.890625
 40
0.90625
 40
0.9375
 40
1.0
 40
1.0
 40
1.0
 40
1.0
 10
17.0353546629
 20
13.4858241375
 30
0.0
 10
17.0377614695
 20
13.4818547171
 30
0.0
 10
17.041371688
 20
13.4759005895
 30
0.0
 10
17.0455835789
 20
13.4689540966
 30
0.0
 10
17.0479904177
 20
13.4649846875
 30
0.0
 10
17.0497954236
 20
13.4620075873
 30
0.0
 10
17.0512999874
 20
13.4595268089
 30
0.0
 10
17.0525027586
 20
13.4575418756
 30
0.0
 10
17.0532564942
 20
13.4563019995
 30
0.0
 10
17.053854894
 20
13.455308479
 30
0.0
 10
17.0542393639
 20
13.454691224
 30
0.0
 10
17.0545229588
 20
13.4541889561
 30
0.0
 10
17.0548941017
 20
13.4537175877
 30
0.0
 10
17.0555842716
 20
13.4529070472
 30
0.0
 10
17.0565490091
 20
13.4517416429
 30
0.0
 10
17.0581044477
 20
13.4498811815
 30
0.0
 10
17.060044684
 20
13.4475541706
 30
0.0
 10
17.063151341
 20
13.4438317609
 30
0.0
 10
17.0670338184
 20
13.4391784276
 30
0.0
 10
17.0709168227
 20
13.4345253689
 30
0.0
 10
17.0740226367
 20
13.4308025199
 30
0.0
 10
17.0759649805
 20
13.4284766072
 30
0.0
 10
17.0775160988
 20
13.4266138946
 30
0.0
 10
17.0784918346
 20
13.4254542212
 30
0.0
 10
17.0791622503
 20
13.4246333873
 30
0.0
 10
17.0795650578
 20
13.4241785186
 30
0.0
 10
17.0800421268
 20
13.4237770656
 30
0.0
 10
17.080613036
 20
13.4232569598
 30
0.0
 10
17.0815407005
 20
13.4224350116
 30
0.0
 10
17.0826954157
 20
13.4214040767
 30
0.0
 10
17.0845456794
 20
13.4197565368
 30
0.0
 10
17.0868575758
 20
13.4176964407
 30
0.0
 10
17.0896322516
 20
13.4152246134
 30
0.0
 10
17.0924068197
 20
13.4127527081
 30
0.0
 10
17.0951814189
 20
13.4102808267
 30
0.0
 10
17.0979560015
 20
13.4078089278
 30
0.0
 10
17.1007306191
 20
13.4053370748
 30
0.0
 10
17.1030426976
 20
13.4032770588
 30
0.0
 10
17.1048925899
 20
13.4016293556
 30
0.0
 10
17.1062793822
 20
13.4003927324
 30
0.0
 10
17.1074370365
 20
13.3993649036
 30
0.0
 10
17.1082434813
 20
13.3986401432
 30
0.0
 10
17.108710417
 20
13.398234239
 30
0.0
 10
17.1090434067
 20
13.3979065858
 30
0.0
 10
17.1094421895
 20
13.3976677105
 30
0.0
 10
17.1099509505
 20
13.3973182434
 30
0.0
 10
17.1108519748
 20
13.3967211039
 30
0.0
 10
17.1121335621
 20
13.3958605044
 30
0.0
 10
17.1136738598
 20
13.3948310137
 30
0.0
 10
17.1157267541
 20
13.3934572316
 30
0.0
 10
17.118293159
 20
13.391740391
 30
0.0
 10
17.1213727213
 20
13.389680016
 30
0.0
 10
17.1244523187
 20
13.3876196869
 30
0.0
 10
17.1275318992
 20
13.3855593406
 30
0.0
 10
17.1306115121
 20
13.3834990172
 30
0.0
 10
17.1336910123
 20
13.3814386195
 30
0.0
 10
17.1362576111
 20
13.3797218498
 30
0.0
 10
17.1383101098
 20
13.3783479232
 30
0.0
 10
17.139594698
 20
13.377490382
 30
0.0
 10
17.1406183
 20
13.3768016857
 30
0.0
 10
17.1412673345
 20
13.3763773273
 30
0.0
 10
17.1417652995
 20
13.3760239221
 30
0.0
 10
17.142340888
 20
13.3757213296
 30
0.0
 10
17.1433842271
 20
13.3752153975
 30
0.0
 10
17.1448558975
 20
13.3744803216
 30
0.0
 10
17.1472210846
 20
13.3733110829
 30
0.0
 10
17.1501739671
 20
13.3718471766
 30
0.0
 10
17.1549005985
 20
13.369506252
 30
0.0
 10
17.1608081484
 20
13.3665795867
 30
0.0
 10
17.1667161312
 20
13.3636533029
 30
0.0
 10
17.17144207
 20
13.361311768
 30
0.0
 10
17.1743966838
 20
13.3598493874
 30
0.0
 10
17.1767583218
 20
13.3586770209
 30
0.0
 10
17.1782390273
 20
13.3579499076
 30
0.0
 10
17.1792661385
 20
13.3574296738
 30
0.0
 10
17.1798677392
 20
13.357150006
 30
0.0
 10
17.180524632
 20
13.3569366606
 30
0.0
 10
17.181326849
 20
13.3566473096
 30
0.0
 10
17.1832677245
 20
13.3559715251
 30
0.0
 10
17.1861725047
 20
13.3549500117
 30
0.0
 10
17.1900492789
 20
13.353592473
 30
0.0
 10
17.1939250543
 20
13.3522337361
 30
0.0
 10
17.1990931033
 20
13.3504225049
 30
0.0
 10
17.2081370257
 20
13.3472526545
 30
0.0
 10
17.2158890152
 20
13.344535707
 30
0.0
 10
17.2210569957
 20
13.3427243937
 30
0.0
  0
SPLINE
  5
435
100
AcDbEntity
  8
03___PRT_ALL_CURVES
100
AcDbSpline
 62
7
  6
BYLAYER
 70
0
 71
3
 72
50
 73
46
 74
0
 42
0.0000001
 43
0.0000001
 44
0.0000000001
 40
0.0
 40
0.0
 40
0.0
 40
0.0
 40
0.0625
 40
0.125
 40
0.140625
 40
0.15625
 40
0.171875
 40
0.1875
 40
0.21875
 40
0.25
 40
0.28125
 40
0.3125
 40
0.328125
 40
0.34375
 40
0.375
 40
0.40625
 40
0.4375
 40
0.46875
 40
0.484375
 40
0.4921875
 40
0.5
 40
0.5078125
 40
0.515625
 40
0.53125
 40
0.5625
 40
0.59375
 40
0.625
 40
0.640625
 40
0.65625
 40
0.6640625
 40
0.671875
 40
0.6875
 40
0.71875
 40
0.75
 40
0.78125
 40
0.8125
 40
0.8203125
 40
0.828125
 40
0.8359375
 40
0.84375
 40
0.859375
 40
0.875
 40
0.90625
 40
0.9375
 40
1.0
 40
1.0
 40
1.0
 40
1.0
 10
17.2210569906
 20
13.3427243952
 30
0.0
 10
17.2234372313
 20
13.3421058025
 30
0.0
 10
17.228198011
 20
13.3408691053
 30
0.0
 10
17.2335525462
 20
13.3394756242
 30
0.0
 10
17.2371241932
 20
13.3385498404
 30
0.0
 10
17.2389065504
 20
13.3380812736
 30
0.0
 10
17.2407023816
 20
13.3376347657
 30
0.0
 10
17.2431609877
 20
13.3371444749
 30
0.0
 10
17.2462120929
 20
13.3364953181
 30
0.0
 10
17.2498835044
 20
13.335732958
 30
0.0
 10
17.2535500188
 20
13.3349621552
 30
0.0
 10
17.2566133667
 20
13.334334105
 30
0.0
 10
17.2590474873
 20
13.3338016011
 30
0.0
 10
17.2615415036
 20
13.3333779238
 30
0.0
 10
17.2646794684
 20
13.3328856108
 30
0.0
 10
17.2684366351
 20
13.3322789953
 30
0.0
 10
17.272194655
 20
13.3316760856
 30
0.0
 10
17.2753304869
 20
13.3311745082
 30
0.0
 10
17.2775164837
 20
13.3308200033
 30
0.0
 10
17.2787799554
 20
13.3306230046
 30
0.0
 10
17.279687163
 20
13.3304595005
 30
0.0
 10
17.2807487898
 20
13.330356229
 30
0.0
 10
17.2821104277
 20
13.3301975251
 30
0.0
 10
17.2845184044
 20
13.3299295683
 30
0.0
 10
17.2879451316
 20
13.3295417692
 30
0.0
 10
17.2920633584
 20
13.3290780855
 30
0.0
 10
17.295492353
 20
13.3286927697
 30
0.0
 10
17.2982393381
 20
13.3283810699
 30
0.0
 10
17.2999481606
 20
13.328194332
 30
0.0
 10
17.3013335751
 20
13.3280264246
 30
0.0
 10
17.3026519981
 20
13.3279261258
 30
0.0
 10
17.3049281083
 20
13.3277820121
 30
0.0
 10
17.3081960162
 20
13.3275597328
 30
0.0
 10
17.3121103154
 20
13.3272999378
 30
0.0
 10
17.3160272604
 20
13.3270386264
 30
0.0
 10
17.3189624244
 20
13.326841987
 30
0.0
 10
17.3209226149
 20
13.326712461
 30
0.0
 10
17.3218967293
 20
13.3266447827
 30
0.0
 10
17.3228940844
 20
13.3265884522
 30
0.0
 10
17.3243344701
 20
13.3265673444
 30
0.0
 10
17.3260970901
 20
13.3265224703
 30
0.0
 10
17.3289384417
 20
13.3264610047
 30
0.0
 10
17.332482883
 20
13.3263806331
 30
0.0
 10
17.3381580583
 20
13.3262540257
 30
0.0
 10
17.3424135242
 20
13.3261586231
 30
0.0
 10
17.3452507049
 20
13.3260951206
 30
0.0
  0
SPLINE
  5
436
100
AcDbEntity
  8
03___PRT_ALL_CURVES
100
AcDbSpline
 62
7
  6
BYLAYER
 70
0
 71
3
 72
62
 73
58
 74
0
 42
0.0000001
 43
0.0000001
 44
0.0000000001
 40
0.0
 40
0.0
 40
0.0
 40
0.0
 40
0.0625
 40
0.09375
 40
0.125
 40
0.140625
 40
0.15625
 40
0.1640625
 40
0.16796875
 40
0.171875
 40
0.1796875
 40
0.1875
 40
0.21875
 40
0.25
 40
0.28125
 40
0.3125
 40
0.3203125
 40
0.328125
 40
0.33203125
 40
0.3359375
 40
0.34375
 40
0.359375
 40
0.375
 40
0.4375
 40
0.46875
 40
0.484375
 40
0.4921875
 40
0.5
 40
0.5078125
 40
0.515625
 40
0.53125
 40
0.546875
 40
0.5625
 40
0.59375
 40
0.625
 40
0.640625
 40
0.65625
 40
0.6640625
 40
0.66796875
 40
0.671875
 40
0.6796875
 40
0.6875
 40
0.71875
 40
0.75
 40
0.78125
 40
0.796875
 40
0.8125
 40
0.8203125
 40
0.828125
 40
0.83203125
 40
0.8359375
 40
0.84375
 40
0.859375
 40
0.875
 40
0.90625
 40
0.9375
 40
1.0
 40
1.0
 40
1.0
 40
1.0
 10
17.3452507042
 20
13.3260951206
 30
0.0
 10
17.3496829189
 20
13.3262449351
 30
0.0
 10
17.3563312722
 20
13.3264698029
 30
0.0
 10
17.365195618
 20
13.3267690423
 30
0.0
 10
17.3707360952
 20
13.3269572843
 30
0.0
 10
17.3751678817
 20
13.3271051022
 30
0.0
 10
17.3779391057
 20
13.327203819
 30
0.0
 10
17.3798762422
 20
13.3272602337
 30
0.0
 10
17.3809874335
 20
13.3273123207
 30
0.0
 10
17.3821146558
 20
13.3274391727
 30
0.0
 10
17.3835182042
 20
13.3275721822
 30
0.0
 10
17.3868912307
 20
13.3279124431
 30
0.0
 10
17.3919488677
 20
13.3284139279
 30
0.0
 10
17.3986935111
 20
13.3290879999
 30
0.0
 10
17.4054377041
 20
13.3297593703
 30
0.0
 10
17.4104963545
 20
13.3302669334
 30
0.0
 10
17.413868086
 20
13.3305994276
 30
0.0
 10
17.4152740038
 20
13.330746648
 30
0.0
 10
17.4163963371
 20
13.3308441777
 30
0.0
 10
17.4175274504
 20
13.3310157491
 30
0.0
 10
17.4195109775
 20
13.3313504004
 30
0.0
 10
17.4223424624
 20
13.3318105259
 30
0.0
 10
17.4291397823
 20
13.3329298626
 30
0.0
 10
17.4370693357
 20
13.334227856
 30
0.0
 10
17.444999312
 20
13.3355363913
 30
0.0
 10
17.4489640577
 20
13.3361795857
 30
0.0
 10
17.4512299818
 20
13.3365646022
 30
0.0
 10
17.4529284289
 20
13.336804098
 30
0.0
 10
17.4546306824
 20
13.3372319214
 30
0.0
 10
17.4568990241
 20
13.3377365671
 30
0.0
 10
17.4597349072
 20
13.3383899469
 30
0.0
 10
17.4631377725
 20
13.3391643323
 30
0.0
 10
17.4676749907
 20
13.3402002665
 30
0.0
 10
17.473346516
 20
13.3414937067
 30
0.0
 10
17.4790179504
 20
13.342788782
 30
0.0
 10
17.4835553141
 20
13.3438221001
 30
0.0
 10
17.4863906716
 20
13.3444739616
 30
0.0
 10
17.4883764136
 20
13.3449181853
 30
0.0
 10
17.4895095715
 20
13.3451909236
 30
0.0
 10
17.4906368845
 20
13.3455348339
 30
0.0
 10
17.4920480237
 20
13.345940395
 30
0.0
 10
17.4954331125
 20
13.3469337621
 30
0.0
 10
17.5005114472
 20
13.3484154272
 30
0.0
 10
17.5072821097
 20
13.3503956631
 30
0.0
 10
17.5129245829
 20
13.352045159
 30
0.0
 10
17.517438176
 20
13.3533640961
 30
0.0
 10
17.5202600081
 20
13.3541904311
 30
0.0
 10
17.5225155627
 20
13.3548468657
 30
0.0
 10
17.5239296439
 20
13.3552677212
 30
0.0
 10
17.5250509236
 20
13.3555801626
 30
0.0
 10
17.5262086568
 20
13.355981109
 30
0.0
 10
17.528251624
 20
13.3567238797
 30
0.0
 10
17.5311613133
 20
13.3577635292
 30
0.0
 10
17.5358217539
 20
13.3594389567
 30
0.0
 10
17.5416456132
 20
13.3615291344
 30
0.0
 10
17.5509647376
 20
13.3648757243
 30
0.0
 10
17.5579538673
 20
13.367385148
 30
0.0
 10
17.5626133345
 20
13.3690582125
 30
0.0
  0
SPLINE
  5
437
100
AcDbEntity
  8
03___PRT_ALL_CURVES
100
AcDbSpline
 62
7
  6
BYLAYER
 70
0
 71
3
 72
75
 73
71
 74
0
 42
0.0000001
 43
0.0000001
 44
0.0000000001
 40
0.0
 40
0.0
 40
0.0
 40
0.0
 40
0.0625
 40
0.09375
 40
0.109375
 40
0.125
 40
0.140625
 40
0.15625
 40
0.16015625
 40
0.1640625
 40
0.16796875
 40
0.171875
 40
0.1796875
 40
0.1875
 40
0.203125
 40
0.21875
 40
0.25
 40
0.28125
 40
0.296875
 40
0.3125
 40
0.3203125
 40
0.328125
 40
0.33203125
 40
0.3359375
 40
0.33984375
 40
0.34375
 40
0.359375
 40
0.375
 40
0.390625
 40
0.40625
 40
0.4375
 40
0.453125
 40
0.46875
 40
0.484375
 40
0.4921875
 40
0.49609375
 40
0.5
 40
0.50390625
 40
0.5078125
 40
0.515625
 40
0.53125
 40
0.546875
 40
0.5625
 40
0.59375
 40
0.609375
 40
0.625
 40
0.640625
 40
0.65625
 40
0.6640625
 40
0.66796875
 40
0.671875
 40
0.6796875
 40
0.6875
 40
0.703125
 40
0.71875
 40
0.75
 40
0.78125
 40
0.796875
 40
0.8125
 40
0.8203125
 40
0.828125
 40
0.83203125
 40
0.8359375
 40
0.83984375
 40
0.84375
 40
0.859375
 40
0.875
 40
0.90625
 40
0.9375
 40
1.0
 40
1.0
 40
1.0
 40
1.0
 10
17.562613337
 20
13.3690582134
 30
0.0
 10
17.567926917
 20
13.3713717067
 30
0.0
 10
17.5758972873
 20
13.3748419617
 30
0.0
 10
17.5851960518
 20
13.37889054
 30
0.0
 10
17.5905096326
 20
13.3812040882
 30
0.0
 10
17.5944948152
 20
13.3829390397
 30
0.0
 10
17.5984800094
 20
13.3846747925
 30
0.0
 10
17.6014688723
 20
13.3859743602
 30
0.0
 10
17.6034614986
 20
13.3868442331
 30
0.0
 10
17.6044577206
 20
13.3872729298
 30
0.0
 10
17.6054542967
 20
13.3877258867
 30
0.0
 10
17.6067847493
 20
13.3884452643
 30
0.0
 10
17.6084472384
 20
13.3893049614
 30
0.0
 10
17.6111075428
 20
13.3907025655
 30
0.0
 10
17.6144328158
 20
13.3924420056
 30
0.0
 10
17.6197532967
 20
13.3952293482
 30
0.0
 10
17.6264039973
 20
13.3987119978
 30
0.0
 10
17.6330542448
 20
13.4021954639
 30
0.0
 10
17.6383754507
 20
13.4049815001
 30
0.0
 10
17.6416989113
 20
13.4067242064
 30
0.0
 10
17.6443629311
 20
13.4081151147
 30
0.0
 10
17.6460159617
 20
13.4089918572
 30
0.0
 10
17.6473658296
 20
13.409676246
 30
0.0
 10
17.6483030895
 20
13.4102360984
 30
0.0
 10
17.6492192935
 20
13.4108089982
 30
0.0
 10
17.6510625328
 20
13.4119480861
 30
0.0
 10
17.6538228425
 20
13.4136595366
 30
0.0
 10
17.6575058551
 20
13.4159398611
 30
0.0
 10
17.6611881737
 20
13.4182206103
 30
0.0
 10
17.6660981672
 20
13.4212614904
 30
0.0
 10
17.6710081367
 20
13.4243022342
 30
0.0
 10
17.6759180016
 20
13.427343476
 30
0.0
 10
17.679600738
 20
13.4296230498
 30
0.0
 10
17.682668603
 20
13.4315270122
 30
0.0
 10
17.684818233
 20
13.4328513129
 30
0.0
 10
17.6860432755
 20
13.4336212859
 30
0.0
 10
17.6869714028
 20
13.4341614973
 30
0.0
 10
17.6878638072
 20
13.4348441672
 30
0.0
 10
17.6890661403
 20
13.4357047027
 30
0.0
 10
17.6911644175
 20
13.4372337917
 30
0.0
 10
17.6941649923
 20
13.4394060999
 30
0.0
 10
17.6977643797
 20
13.4420180539
 30
0.0
 10
17.7025640321
 20
13.4454988335
 30
0.0
 10
17.7073634742
 20
13.4489801987
 30
0.0
 10
17.7121631954
 20
13.4524611764
 30
0.0
 10
17.7157623592
 20
13.4550724868
 30
0.0
 10
17.7193638917
 20
13.4576816825
 30
0.0
 10
17.722357796
 20
13.4598625801
 30
0.0
 10
17.7244679754
 20
13.4613763412
 30
0.0
 10
17.7256512388
 20
13.4622614352
 30
0.0
 10
17.7267495531
 20
13.46322219
 30
0.0
 10
17.7281515325
 20
13.4643972273
 30
0.0
 10
17.7303784442
 20
13.4662917649
 30
0.0
 10
17.7331676524
 20
13.4686549779
 30
0.0
 10
17.7376272576
 20
13.4724389005
 30
0.0
 10
17.7432029494
 20
13.4771677757
 30
0.0
 10
17.7487778097
 20
13.4818972856
 30
0.0
 10
17.7532387453
 20
13.4856801929
 30
0.0
 10
17.7560246275
 20
13.488045944
 30
0.0
 10
17.7582583577
 20
13.4899352783
 30
0.0
 10
17.7596429791
 20
13.4911235618
 30
0.0
 10
17.760776924
 20
13.4920571264
 30
0.0
 10
17.7615555153
 20
13.4928040167
 30
0.0
 10
17.7623139682
 20
13.4935639979
 30
0.0
 10
17.7638412324
 20
13.4950772269
 30
0.0
 10
17.7661277897
 20
13.497349891
 30
0.0
 10
17.7701960136
 20
13.501388081
 30
0.0
 10
17.7752801859
 20
13.5064365385
 30
0.0
 10
17.7834154835
 20
13.5145136662
 30
0.0
 10
17.7895168167
 20
13.5205716029
 30
0.0
 10
17.7935844033
 20
13.5246102072
 30
0.0
  0
SPLINE
  5
438
100
AcDbEntity
  8
03___PRT_ALL_CURVES
100
AcDbSpline
 62
7
  6
BYLAYER
 70
0
 71
3
 72
93
 73
89
 74
0
 42
0.0000001
 43
0.0000001
 44
0.0000000001
 40
0.0
 40
0.0
 40
0.0
 40
0.0
 40
0.0625
 40
0.09375
 40
0.109375
 40
0.125
 40
0.140625
 40
0.1484375
 40
0.15625
 40
0.16015625
 40
0.1640625
 40
0.166015625
 40
0.16796875
 40
0.171875
 40
0.1796875
 40
0.1875
 40
0.203125
 40
0.21875
 40
0.25
 40
0.28125
 40
0.296875
 40
0.3125
 40
0.3203125
 40
0.328125
 40
0.33203125
 40
0.333984375
 40
0.3359375
 40
0.33984375
 40
0.34375
 40
0.3515625
 40
0.359375
 40
0.375
 40
0.390625
 40
0.40625
 40
0.421875
 40
0.4375
 40
0.453125
 40
0.46875
 40
0.4765625
 40
0.484375
 40
0.4921875
 40
0.49609375
 40
0.498046875
 40
0.5
 40
0.501953125
 40
0.50390625
 40
0.5078125
 40
0.515625
 40
0.5234375
 40
0.53125
 40
0.546875
 40
0.5625
 40
0.578125
 40
0.59375
 40
0.609375
 40
0.625
 40
0.640625
 40
0.6484375
 40
0.65625
 40
0.66015625
 40
0.6640625
 40
0.666015625
 40
0.66796875
 40
0.671875
 40
0.6796875
 40
0.6875
 40
0.703125
 40
0.71875
 40
0.75
 40
0.78125
 40
0.796875
 40
0.8046875
 40
0.8125
 40
0.8203125
 40
0.828125
 40
0.830078125
 40
0.83203125
 40
0.833984375
 40
0.8359375
 40
0.83984375
 40
0.84375
 40
0.8515625
 40
0.859375
 40
0.875
 40
0.890625
 40
0.90625
 40
0.9375
 40
1.0
 40
1.0
 40
1.0
 40
1.0
 10
17.7935843988
 20
13.5246102023
 30
0.0
 10
17.7981603756
 20
13.5300895254
 30
0.0
 10
17.8050243311
 20
13.5383085134
 30
0.0
 10
17.8130323131
 20
13.5478973209
 30
0.0
 10
17.8176082543
 20
13.5533766564
 30
0.0
 10
17.821040346
 20
13.5574861105
 30
0.0
 10
17.8238999902
 20
13.560910807
 30
0.0
 10
17.8261886748
 20
13.5636502244
 30
0.0
 10
17.8276168958
 20
13.5653631342
 30
0.0
 10
17.8287645268
 20
13.5667316897
 30
0.0
 10
17.8294702641
 20
13.5675910807
 30
0.0
 10
17.8300612673
 20
13.5682693314
 30
0.0
 10
17.8305558427
 20
13.5689813955
 30
0.0
 10
17.8313765548
 20
13.5702432157
 30
0.0
 10
17.8325723724
 20
13.5720376202
 30
0.0
 10
17.8344726191
 20
13.5749132478
 30
0.0
 10
17.8368524016
 20
13.5785062131
 30
0.0
 10
17.8406575419
 20
13.5842558394
 30
0.0
 10
17.8454149087
 20
13.591442535
 30
0.0
 10
17.8501716495
 20
13.5986294776
 30
0.0
 10
17.8539777913
 20
13.6043787087
 30
0.0
 10
17.8563550699
 20
13.6079726622
 30
0.0
 10
17.8582604496
 20
13.6108462641
 30
0.0
 10
17.8594432
 20
13.6126458254
 30
0.0
 10
17.8602873822
 20
13.6138983834
 30
0.0
 10
17.8607443365
 20
13.6146252941
 30
0.0
 10
17.8611054715
 20
13.6153942586
 30
0.0
 10
17.8615896985
 20
13.6163410651
 30
0.0
 10
17.8623461269
 20
13.6178640024
 30
0.0
 10
17.8632979403
 20
13.6197649187
 30
0.0
 10
17.864817333
 20
13.6228079248
 30
0.0
 10
17.8667177779
 20
13.6266111539
 30
0.0
 10
17.8689977953
 20
13.6311752554
 30
0.0
 10
17.8712779525
 20
13.6357392963
 30
0.0
 10
17.8735580669
 20
13.640303353
 30
0.0
 10
17.8758382125
 20
13.6448674072
 30
0.0
 10
17.8781182763
 20
13.6494314556
 30
0.0
 10
17.880018576
 20
13.6532348506
 30
0.0
 10
17.881538265
 20
13.6562775184
 30
0.0
 10
17.8826795362
 20
13.6585596508
 30
0.0
 10
17.8836258103
 20
13.6604610097
 30
0.0
 10
17.8842975928
 20
13.6617927813
 30
0.0
 10
17.8846668058
 20
13.6625525126
 30
0.0
 10
17.8849850208
 20
13.6631259199
 30
0.0
 10
17.8851453461
 20
13.6636855325
 30
0.0
 10
17.8854141869
 20
13.6644364944
 30
0.0
 10
17.8858589983
 20
13.6657484357
 30
0.0
 10
17.8865078586
 20
13.6676238098
 30
0.0
 10
17.8872807486
 20
13.6698737569
 30
0.0
 10
17.8883132746
 20
13.6728738617
 30
0.0
 10
17.8896032435
 20
13.6766239326
 30
0.0
 10
17.8911515022
 20
13.6811240433
 30
0.0
 10
17.8926996787
 20
13.6856241476
 30
0.0
 10
17.894247888
 20
13.690124252
 30
0.0
 10
17.8957960481
 20
13.6946243624
 30
0.0
 10
17.8973443724
 20
13.6991244488
 30
0.0
 10
17.8986341361
 20
13.7028745956
 30
0.0
 10
17.8996670807
 20
13.7058745455
 30
0.0
 10
17.9003100905
 20
13.7077498957
 30
0.0
 10
17.9008304082
 20
13.7092493021
 30
0.0
 10
17.9011421222
 20
13.7101884246
 30
0.0
 10
17.901422379
 20
13.7109351567
 30
0.0
 10
17.9015898814
 20
13.7116985577
 30
0.0
 10
17.9018306316
 20
13.7130422529
 30
0.0
 10
17.9022018892
 20
13.7149577774
 30
0.0
 10
17.9027806287
 20
13.7180248744
 30
0.0
 10
17.9035092826
 20
13.7218579725
 30
0.0
 10
17.9046722049
 20
13.7279913615
 30
0.0
 10
17.90612687
 20
13.7356579501
 30
0.0
 10
17.9075811413
 20
13.7433245894
 30
0.0
 10
17.9085992496
 20
13.7486912337
 30
0.0
 10
17.909180941
 20
13.7517578779
 30
0.0
 10
17.9096174298
 20
13.7540578911
 30
0.0
 10
17.9100530802
 20
13.7563577887
 30
0.0
 10
17.9103821681
 20
13.7580830362
 30
0.0
 10
17.9105979052
 20
13.7592326969
 30
0.0
 10
17.9107123
 20
13.7598084276
 30
0.0
 10
17.9108013208
 20
13.7603806578
 30
0.0
 10
17.9107992814
 20
13.7611269754
 30
0.0
 10
17.9108380712
 20
13.7620655753
 30
0.0
 10
17.9108770327
 20
13.7635641481
 30
0.0
 10
17.9109336448
 20
13.7654384553
 30
0.0
 10
17.9110198031
 20
13.768436737
 30
0.0
 10
17.9111290178
 20
13.7721847984
 30
0.0
 10
17.9112594262
 20
13.7766823825
 30
0.0
 10
17.9114335306
 20
13.7826791925
 30
0.0
 10
17.9117381072
 20
13.7931735953
 30
0.0
 10
17.9119992092
 20
13.8021688028
 30
0.0
 10
17.9121732691
 20
13.8081656067
 30
0.0
  0
SPLINE
  5
439
100
AcDbEntity
  8
03___PRT_ALL_CURVES
100
AcDbSpline
 62
7
  6
BYLAYER
 70
0
 71
3
 72
99
 73
95
 74
0
 42
0.0000001
 43
0.0000001
 44
0.0000000001
 40
0.0
 40
0.0
 40
0.0
 40
0.0
 40
0.0625
 40
0.09375
 40
0.109375
 40
0.125
 40
0.140625
 40
0.1484375
 40
0.15625
 40
0.16015625
 40
0.1640625
 40
0.166015625
 40
0.16796875
 40
0.169921875
 40
0.171875
 40
0.1796875
 40
0.1875
 40
0.1953125
 40
0.203125
 40
0.21875
 40
0.25
 40
0.28125
 40
0.296875
 40
0.3046875
 40
0.3125
 40
0.3203125
 40
0.328125
 40
0.330078125
 40
0.33203125
 40
0.333984375
 40
0.3359375
 40
0.33984375
 40
0.34375
 40
0.3515625
 40
0.359375
 40
0.375
 40
0.390625
 40
0.40625
 40
0.421875
 40
0.4375
 40
0.453125
 40
0.46875
 40
0.4765625
 40
0.484375
 40
0.4921875
 40
0.49609375
 40
0.498046875
 40
0.5
 40
0.501953125
 40
0.50390625
 40
0.5078125
 40
0.515625
 40
0.5234375
 40
0.53125
 40
0.546875
 40
0.5625
 40
0.578125
 40
0.59375
 40
0.609375
 40
0.625
 40
0.640625
 40
0.6484375
 40
0.65625
 40
0.66015625
 40
0.6640625
 40
0.666015625
 40
0.66796875
 40
0.669921875
 40
0.671875
 40
0.6796875
 40
0.6875
 40
0.6953125
 40
0.703125
 40
0.71875
 40
0.75
 40
0.78125
 40
0.796875
 40
0.8046875
 40
0.8125
 40
0.8203125
 40
0.828125
 40
0.830078125
 40
0.83203125
 40
0.833984375
 40
0.8359375
 40
0.83984375
 40
0.84375
 40
0.8515625
 40
0.859375
 40
0.875
 40
0.890625
 40
0.90625
 40
0.9375
 40
1.0
 40
1.0
 40
1.0
 40
1.0
 10
17.9121732694
 20
13.8081656024
 30
0.0
 10
17.9113890191
 20
13.8137736674
 30
0.0
 10
17.9102126317
 20
13.8221857626
 30
0.0
 10
17.908840222
 20
13.8319998816
 30
0.0
 10
17.9080559274
 20
13.8376079383
 30
0.0
 10
17.9074678759
 20
13.8418140125
 30
0.0
 10
17.9069772934
 20
13.8453189733
 30
0.0
 10
17.9065860377
 20
13.8481231687
 30
0.0
 10
17.9063387469
 20
13.8498752745
 30
0.0
 10
17.9061472261
 20
13.8512781416
 30
0.0
 10
17.9060131239
 20
13.8521522354
 30
0.0
 10
17.9059388283
 20
13.8528576905
 30
0.0
 10
17.9057927891
 20
13.8533698604
 30
0.0
 10
17.9056214412
 20
13.8538772885
 30
0.0
 10
17.9052917644
 20
13.854894584
 30
0.0
 10
17.904791781
 20
13.8564195026
 30
0.0
 10
17.9041282619
 20
13.8584533131
 30
0.0
 10
17.9034639067
 20
13.8604869669
 30
0.0
 10
17.9025783915
 20
13.8631985601
 30
0.0
 10
17.9010286033
 20
13.8679438221
 30
0.0
 10
17.8988146973
 20
13.8747227851
 30
0.0
 10
17.8966007425
 20
13.8815017284
 30
0.0
 10
17.8950510227
 20
13.886247018
 30
0.0
 10
17.8941654
 20
13.8889585678
 30
0.0
 10
17.8935013746
 20
13.8909923544
 30
0.0
 10
17.892836617
 20
13.8930256663
 30
0.0
 10
17.8923401016
 20
13.894551981
 30
0.0
 10
17.8920058988
 20
13.8955674546
 30
0.0
 10
17.8918444983
 20
13.8960788869
 30
0.0
 10
17.8916609329
 20
13.896575951
 30
0.0
 10
17.8913107152
 20
13.8971703362
 30
0.0
 10
17.8909090537
 20
13.8979367264
 30
0.0
 10
17.890246215
 20
13.8991498688
 30
0.0
 10
17.8894245763
 20
13.9006707761
 30
0.0
 10
17.8881060926
 20
13.9031017243
 30
0.0
 10
17.8864593132
 20
13.9061412686
 30
0.0
 10
17.8844826094
 20
13.9097883533
 30
0.0
 10
17.8825060593
 20
13.9134355373
 30
0.0
 10
17.8805294629
 20
13.9170826927
 30
0.0
 10
17.8785528982
 20
13.9207298634
 30
0.0
 10
17.8765762528
 20
13.9243770012
 30
0.0
 10
17.8749292909
 20
13.9274163797
 30
0.0
 10
17.8736111795
 20
13.9298476662
 30
0.0
 10
17.8726240762
 20
13.9316717218
 30
0.0
 10
17.8717967817
 20
13.933189889
 30
0.0
 10
17.8712269155
 20
13.9342562939
 30
0.0
 10
17.8708868503
 20
13.9348599098
 30
0.0
 10
17.8706724435
 20
13.9353288429
 30
0.0
 10
17.870302682
 20
13.9357357704
 30
0.0
 10
17.8698638561
 20
13.9362999686
 30
0.0
 10
17.8690706628
 20
13.9372772386
 30
0.0
 10
17.8679507295
 20
13.9386786068
 30
0.0
 10
17.8666011596
 20
13.9403579936
 30
0.0
 10
17.8648037066
 20
13.9425979639
 30
0.0
 10
17.862556213
 20
13.9453976562
 30
0.0
 10
17.8598595117
 20
13.9487574035
 30
0.0
 10
17.8571627301
 20
13.9521171174
 30
0.0
 10
17.8544659784
 20
13.9554768483
 30
0.0
 10
17.8517691876
 20
13.9588365444
 30
0.0
 10
17.8490725235
 20
13.9621963631
 30
0.0
 10
17.8468249135
 20
13.9649958322
 30
0.0
 10
17.8450276981
 20
13.9672362579
 30
0.0
 10
17.8439024518
 20
13.9686345877
 30
0.0
 10
17.8430068045
 20
13.9697576859
 30
0.0
 10
17.8424366441
 20
13.9704495046
 30
0.0
 10
17.8420042923
 20
13.9710261334
 30
0.0
 10
17.8416149276
 20
13.9713951541
 30
0.0
 10
17.8412073204
 20
13.9717463946
 30
0.0
 10
17.84040149
 20
13.9724580218
 30
0.0
 10
17.839188803
 20
13.9735216211
 30
0.0
 10
17.8375741397
 20
13.9749419492
 30
0.0
 10
17.8359588739
 20
13.97636169
 30
0.0
 10
17.8338053963
 20
13.9782548826
 30
0.0
 10
17.8300367119
 20
13.9815678737
 30
0.0
 10
17.8246529345
 20
13.986300772
 30
0.0
 10
17.8192691154
 20
13.9910336374
 30
0.0
 10
17.8155004894
 20
13.9943466747
 30
0.0
 10
17.8133469201
 20
13.9962397948
 30
0.0
 10
17.8117319356
 20
13.997659758
 30
0.0
 10
17.8101162157
 20
13.9990792506
 30
0.0
 10
17.8089064877
 20
14.0001451894
 30
0.0
 10
17.8080967956
 20
14.0008537635
 30
0.0
 10
17.8076976759
 20
14.0012117144
 30
0.0
 10
17.8072762922
 20
14.0015554202
 30
0.0
 10
17.8066085115
 20
14.0019459137
 30
0.0
 10
17.8058100578
 20
14.0024572387
 30
0.0
 10
17.8045122613
 20
14.0032623888
 30
0.0
 10
17.8028969564
 20
14.0042732674
 30
0.0
 10
17.8003085894
 20
14.0058881912
 30
0.0
 10
17.7970744616
 20
14.0079076975
 30
0.0
 10
17.7931929385
 20
14.0103307405
 30
0.0
 10
17.7880177732
 20
14.0135615917
 30
0.0
 10
17.7789611407
 20
14.0192155217
 30
0.0
 10
17.7711983448
 20
14.0240617679
 30
0.0
 10
17.7660231405
 20
14.0272925942
 30
0.0
  0
SPLINE
  5
43A
100
AcDbEntity
  8
03___PRT_ALL_CURVES
100
AcDbSpline
 62
7
  6
BYLAYER
 70
0
 71
3
 72
66
 73
62
 74
0
 42
0.0000001
 43
0.0000001
 44
0.0000000001
 40
0.0
 40
0.0
 40
0.0
 40
0.0
 40
0.0625
 40
0.09375
 40
0.125
 40
0.140625
 40
0.15625
 40
0.1640625
 40
0.16796875
 40
0.171875
 40
0.1796875
 40
0.1875
 40
0.21875
 40
0.25
 40
0.28125
 40
0.3125
 40
0.3203125
 40
0.328125
 40
0.33203125
 40
0.3359375
 40
0.34375
 40
0.359375
 40
0.375
 40
0.40625
 40
0.4375
 40
0.453125
 40
0.46875
 40
0.484375
 40
0.4921875
 40
0.49609375
 40
0.5
 40
0.50390625
 40
0.5078125
 40
0.515625
 40
0.53125
 40
0.546875
 40
0.5625
 40
0.59375
 40
0.625
 40
0.640625
 40
0.65625
 40
0.6640625
 40
0.66796875
 40
0.671875
 40
0.6796875
 40
0.6875
 40
0.71875
 40
0.75
 40
0.78125
 40
0.796875
 40
0.8125
 40
0.8203125
 40
0.828125
 40
0.83203125
 40
0.8359375
 40
0.84375
 40
0.859375
 40
0.875
 40
0.90625
 40
0.9375
 40
1.0
 40
1.0
 40
1.0
 40
1.0
 10
17.7660231446
 20
14.027292592
 30
0.0
 10
17.7625582297
 20
14.0289000652
 30
0.0
 10
17.7573607477
 20
14.0313111402
 30
0.0
 10
17.7504312099
 20
14.0345264457
 30
0.0
 10
17.746099336
 20
14.0365348892
 30
0.0
 10
17.742635918
 20
14.0381442033
 30
0.0
 10
17.7404665354
 20
14.0391441874
 30
0.0
 10
17.7389574797
 20
14.0398558746
 30
0.0
 10
17.7380802795
 20
14.0402442499
 30
0.0
 10
17.7371470236
 20
14.0405636871
 30
0.0
 10
17.7359996142
 20
14.0409865475
 30
0.0
 10
17.7332300583
 20
14.0419820136
 30
0.0
 10
17.7290823971
 20
14.043483428
 30
0.0
 10
17.7235481416
 20
14.0454802969
 30
0.0
 10
17.7180158135
 20
14.0474797078
 30
0.0
 10
17.7138638158
 20
14.0489754026
 30
0.0
 10
17.711099801
 20
14.0499781771
 30
0.0
 10
17.7099422531
 20
14.0503876652
 30
0.0
 10
17.7090299165
 20
14.0507346943
 30
0.0
 10
17.7080674732
 20
14.0510106368
 30
0.0
 10
17.7063599167
 20
14.0514605081
 30
0.0
 10
17.7039326967
 20
14.0521204132
 30
0.0
 10
17.7000423584
 20
14.0531666346
 30
0.0
 10
17.6951817469
 20
14.0544776847
 30
0.0
 10
17.690320373
 20
14.0557876751
 30
0.0
 10
17.6864312544
 20
14.0568355919
 30
0.0
 10
17.6835149314
 20
14.0576223919
 30
0.0
 10
17.6810829505
 20
14.0582752154
 30
0.0
 10
17.6793839328
 20
14.0587377853
 30
0.0
 10
17.6784078038
 20
14.0589933751
 30
0.0
 10
17.6776905298
 20
14.0592096769
 30
0.0
 10
17.6769165955
 20
14.0593319087
 30
0.0
 10
17.6759044469
 20
14.059527697
 30
0.0
 10
17.6741239785
 20
14.0598550388
 30
0.0
 10
17.6715852654
 20
14.0603306606
 30
0.0
 10
17.668536754
 20
14.0608979953
 30
0.0
 10
17.6644727682
 20
14.0616555895
 30
0.0
 10
17.6593927043
 20
14.0626025008
 30
0.0
 10
17.6543120965
 20
14.063548303
 30
0.0
 10
17.6502489811
 20
14.0643076719
 30
0.0
 10
17.6477063788
 20
14.0647760141
 30
0.0
 10
17.6459328832
 20
14.0651164101
 30
0.0
 10
17.6449095592
 20
14.0652912757
 30
0.0
 10
17.6438489545
 20
14.0653921432
 30
0.0
 10
17.6425359411
 20
14.0655435203
 30
0.0
 10
17.6393742228
 20
14.0658860097
 30
0.0
 10
17.6346360281
 20
14.0664084673
 30
0.0
 10
17.6283160326
 20
14.0671001829
 30
0.0
 10
17.6230495867
 20
14.0676774192
 30
0.0
 10
17.6188371105
 20
14.0681397196
 30
0.0
 10
17.6162025032
 20
14.0684269757
 30
0.0
 10
17.6140989904
 20
14.0686606888
 30
0.0
 10
17.612774767
 20
14.0687978296
 30
0.0
 10
17.6117372121
 20
14.0689279968
 30
0.0
 10
17.610619984
 20
14.0689834899
 30
0.0
 10
17.6086278231
 20
14.0690459134
 30
0.0
 10
17.6058011898
 20
14.0691531891
 30
0.0
 10
17.6012677844
 20
14.0693147153
 30
0.0
 10
17.5956047246
 20
14.0695200879
 30
0.0
 10
17.5865417534
 20
14.0698467389
 30
0.0
 10
17.579744992
 20
14.0700921648
 30
0.0
 10
17.5752137139
 20
14.0702556848
 30
0.0
  0
SPLINE
  5
43B
100
AcDbEntity
  8
03___PRT_ALL_CURVES
100
AcDbSpline
 62
7
  6
BYLAYER
 70
0
 71
3
 72
111
 73
107
 74
0
 42
0.0000001
 43
0.0000001
 44
0.0000000001
 40
0.0
 40
0.0
 40
0.0
 40
0.0
 40
0.0625
 40
0.09375
 40
0.109375
 40
0.125
 40
0.140625
 40
0.1484375
 40
0.15625
 40
0.16015625
 40
0.1640625
 40
0.166015625
 40
0.1669921875
 40
0.16796875
 40
0.169921875
 40
0.171875
 40
0.1796875
 40
0.1875
 40
0.1953125
 40
0.203125
 40
0.21875
 40
0.25
 40
0.28125
 40
0.296875
 40
0.3046875
 40
0.3125
 40
0.3203125
 40
0.32421875
 40
0.328125
 40
0.330078125
 40
0.33203125
 40
0.3330078125
 40
0.333984375
 40
0.3359375
 40
0.33984375
 40
0.34375
 40
0.3515625
 40
0.359375
 40
0.375
 40
0.390625
 40
0.40625
 40
0.421875
 40
0.4375
 40
0.453125
 40
0.46875
 40
0.4765625
 40
0.484375
 40
0.48828125
 40
0.4921875
 40
0.49609375
 40
0.498046875
 40
0.4990234375
 40
0.5
 40
0.5009765625
 40
0.501953125
 40
0.50390625
 40
0.5078125
 40
0.51171875
 40
0.515625
 40
0.5234375
 40
0.53125
 40
0.546875
 40
0.5625
 40
0.578125
 40
0.59375
 40
0.609375
 40
0.625
 40
0.640625
 40
0.6484375
 40
0.65625
 40
0.66015625
 40
0.6640625
 40
0.666015625
 40
0.6669921875
 40
0.66796875
 40
0.669921875
 40
0.671875
 40
0.67578125
 40
0.6796875
 40
0.6875
 40
0.6953125
 40
0.703125
 40
0.71875
 40
0.75
 40
0.78125
 40
0.796875
 40
0.8046875
 40
0.8125
 40
0.8203125
 40
0.82421875
 40
0.828125
 40
0.830078125
 40
0.83203125
 40
0.8330078125
 40
0.833984375
 40
0.8359375
 40
0.83984375
 40
0.84375
 40
0.8515625
 40
0.859375
 40
0.875
 40
0.890625
 40
0.90625
 40
0.9375
 40
0.96875
 40
1.0
 40
1.0
 40
1.0
 40
1.0
 10
17.3489877552
 20
11.6490261211
 30
0.0
 10
17.353460437
 20
11.6408837261
 30
0.0
 10
17.3601694617
 20
11.6286701384
 30
0.0
 10
17.3679966499
 20
11.6144209358
 30
0.0
 10
17.3724693394
 20
11.6062785586
 30
0.0
 10
17.3758238269
 20
11.6001717077
 30
0.0
 10
17.3786193276
 20
11.5950828817
 30
0.0
 10
17.3808555164
 20
11.5910113357
 30
0.0
 10
17.3822536165
 20
11.5884677241
 30
0.0
 10
17.3833709925
 20
11.5864303049
 30
0.0
 10
17.3840718716
 20
11.5851626903
 30
0.0
 10
17.3845574383
 20
11.5842637915
 30
0.0
 10
17.3848428042
 20
11.5837682352
 30
0.0
 10
17.3851579226
 20
11.583340853
 30
0.0
 10
17.3855416511
 20
11.5827833231
 30
0.0
 10
17.3864709693
 20
11.58146443
 30
0.0
 10
17.3878614313
 20
11.579478035
 30
0.0
 10
17.3897173898
 20
11.5768341125
 30
0.0
 10
17.3915728109
 20
11.5741889584
 30
0.0
 10
17.3940468931
 20
11.5706625158
 30
0.0
 10
17.3983764497
 20
11.5644910416
 30
0.0
 10
17.4045615756
 20
11.5556747506
 30
0.0
 10
17.4107466876
 20
11.5468584367
 30
0.0
 10
17.4150762637
 20
11.5406869947
 30
0.0
 10
17.4175503154
 20
11.5371605014
 30
0.0
 10
17.41940583
 20
11.5345155029
 30
0.0
 10
17.4209521694
 20
11.532311747
 30
0.0
 10
17.4221890677
 20
11.5305478237
 30
0.0
 10
17.4229625235
 20
11.5294474634
 30
0.0
 10
17.4235803849
 20
11.5285623846
 30
0.0
 10
17.4239686092
 20
11.528020141
 30
0.0
 10
17.4242744684
 20
11.5275613102
 30
0.0
 10
17.4245975596
 20
11.5271938784
 30
0.0
 10
17.4251709741
 20
11.5265933314
 30
0.0
 10
17.4259859612
 20
11.5257132543
 30
0.0
 10
17.4272922745
 20
11.5243175109
 30
0.0
 10
17.4289243671
 20
11.5225685929
 30
0.0
 10
17.4315361618
 20
11.5197726931
 30
0.0
 10
17.4348007519
 20
11.5162770054
 30
0.0
 10
17.4387183257
 20
11.5120825287
 30
0.0
 10
17.4426358819
 20
11.5078879585
 30
0.0
 10
17.4465534429
 20
11.5036934141
 30
0.0
 10
17.4504710022
 20
11.4994988598
 30
0.0
 10
17.4543885635
 20
11.4953043192
 30
0.0
 10
17.4576531928
 20
11.4918088314
 30
0.0
 10
17.4602649076
 20
11.4890125238
 30
0.0
 10
17.4618972035
 20
11.4872646435
 30
0.0
 10
17.4632030994
 20
11.4858667699
 30
0.0
 10
17.4641823593
 20
11.4848171856
 30
0.0
 10
17.4649989246
 20
11.4839462831
 30
0.0
 10
17.4655695089
 20
11.4833292899
 30
0.0
 10
17.4658971363
 20
11.4829882166
 30
0.0
 10
17.4661384081
 20
11.4827000324
 30
0.0
 10
17.4663966852
 20
11.4825356179
 30
0.0
 10
17.466735123
 20
11.4822732263
 30
0.0
 10
17.4673301528
 20
11.4818341558
 30
0.0
 10
17.4681787506
 20
11.481196396
 30
0.0
 10
17.4691976863
 20
11.4804355855
 30
0.0
 10
17.4705560513
 20
11.4794195994
 30
0.0
 10
17.4722540814
 20
11.478150155
 30
0.0
 10
17.4749708884
 20
11.4761187431
 30
0.0
 10
17.4783669112
 20
11.4735795816
 30
0.0
 10
17.4824421325
 20
11.4705325429
 30
0.0
 10
17.4865173556
 20
11.4674855181
 30
0.0
 10
17.4905925776
 20
11.4644384829
 30
0.0
 10
17.4946678022
 20
11.4613914756
 30
0.0
 10
17.4987430177
 20
11.458344367
 30
0.0
 10
17.5021390589
 20
11.4558054242
 30
0.0
 10
17.5048558284
 20
11.453773566
 30
0.0
 10
17.5065539538
 20
11.4525052574
 30
0.0
 10
17.5079121232
 20
11.4514869399
 30
0.0
 10
17.5087617341
 20
11.4508588666
 30
0.0
 10
17.5093549487
 20
11.4504024304
 30
0.0
 10
17.5096962958
 20
11.4501678713
 30
0.0
 10
17.5100465612
 20
11.4500322435
 30
0.0
 10
17.5104813393
 20
11.4498288348
 30
0.0
 10
17.5111786909
 20
11.4495223112
 30
0.0
 10
17.512049796
 20
11.449132675
 30
0.0
 10
17.5134438907
 20
11.4485128797
 30
0.0
 10
17.5151863971
 20
11.4477368927
 30
0.0
 10
17.5172774527
 20
11.4468062402
 30
0.0
 10
17.5200655102
 20
11.4455651846
 30
0.0
 10
17.5249446185
 20
11.4433934243
 30
0.0
 10
17.5319147686
 20
11.4402908599
 30
0.0
 10
17.5388849227
 20
11.4371883289
 30
0.0
 10
17.5437640255
 20
11.4350165218
 30
0.0
 10
17.5465520916
 20
11.4337755398
 30
0.0
 10
17.5486431207
 20
11.4328446615
 30
0.0
 10
17.5503857101
 20
11.4320693812
 30
0.0
 10
17.5517796356
 20
11.4314481439
 30
0.0
 10
17.5526511713
 20
11.4310621776
 30
0.0
 10
17.5533476389
 20
11.430748121
 30
0.0
 10
17.5537846676
 20
11.4305638909
 30
0.0
 10
17.5541303134
 20
11.430388895
 30
0.0
 10
17.5544904786
 20
11.4303147024
 30
0.0
 10
17.5551275125
 20
11.4302316928
 30
0.0
 10
17.5560340419
 20
11.4300886754
 30
0.0
 10
17.5574864556
 20
11.4298735015
 30
0.0
 10
17.5593012993
 20
11.4295998589
 30
0.0
 10
17.5622054257
 20
11.4291646438
 30
0.0
 10
17.5658354544
 20
11.4286197285
 30
0.0
 10
17.5701915442
 20
11.4279662138
 30
0.0
 10
17.5759996447
 20
11.4270947268
 30
0.0
 10
17.5832597768
 20
11.426005414
 30
0.0
 10
17.5919719326
 20
11.4246982189
 30
0.0
 10
17.5977800369
 20
11.4238267593
 30
0.0
 10
17.6006840891
 20
11.423391029
 30
0.0
  0
SPLINE
  5
43C
100
AcDbEntity
  8
03___PRT_ALL_CURVES
100
AcDbSpline
 62
7
  6
BYLAYER
 70
0
 71
3
 72
90
 73
86
 74
0
 42
0.0000001
 43
0.0000001
 44
0.0000000001
 40
0.0
 40
0.0
 40
0.0
 40
0.0
 40
0.0625
 40
0.09375
 40
0.109375
 40
0.125
 40
0.140625
 40
0.1484375
 40
0.15625
 40
0.16015625
 40
0.1640625
 40
0.166015625
 40
0.16796875
 40
0.171875
 40
0.1796875
 40
0.1875
 40
0.203125
 40
0.21875
 40
0.25
 40
0.28125
 40
0.296875
 40
0.3125
 40
0.3203125
 40
0.328125
 40
0.33203125
 40
0.333984375
 40
0.3359375
 40
0.33984375
 40
0.34375
 40
0.3515625
 40
0.359375
 40
0.375
 40
0.390625
 40
0.40625
 40
0.421875
 40
0.4375
 40
0.453125
 40
0.46875
 40
0.4765625
 40
0.484375
 40
0.4921875
 40
0.49609375
 40
0.498046875
 40
0.5
 40
0.501953125
 40
0.50390625
 40
0.5078125
 40
0.515625
 40
0.5234375
 40
0.53125
 40
0.546875
 40
0.5625
 40
0.578125
 40
0.59375
 40
0.609375
 40
0.625
 40
0.640625
 40
0.6484375
 40
0.65625
 40
0.66015625
 40
0.6640625
 40
0.666015625
 40
0.66796875
 40
0.671875
 40
0.6796875
 40
0.6875
 40
0.703125
 40
0.71875
 40
0.75
 40
0.78125
 40
0.796875
 40
0.8125
 40
0.8203125
 40
0.828125
 40
0.83203125
 40
0.833984375
 40
0.8359375
 40
0.83984375
 40
0.84375
 40
0.859375
 40
0.875
 40
0.890625
 40
0.90625
 40
0.9375
 40
1.0
 40
1.0
 40
1.0
 40
1.0
 10
17.5338741829
 20
13.0266765342
 30
0.0
 10
17.5305978174
 20
13.0262498681
 30
0.0
 10
17.5256832696
 20
13.0256098599
 30
0.0
 10
17.5199496292
 20
13.0248632158
 30
0.0
 10
17.516673265
 20
13.024436516
 30
0.0
 10
17.5142159871
 20
13.02411662
 30
0.0
 10
17.5121682706
 20
13.0238496297
 30
0.0
 10
17.5105300635
 20
13.0236369579
 30
0.0
 10
17.5095062613
 20
13.0235019419
 30
0.0
 10
17.5086870427
 20
13.0233987296
 30
0.0
 10
17.5081754345
 20
13.0233232689
 30
0.0
 10
17.507765224
 20
13.0232879875
 30
0.0
 10
17.5073583867
 20
13.0231611195
 30
0.0
 10
17.5066479886
 20
13.0228965545
 30
0.0
 10
17.5056323166
 20
13.0225408029
 30
0.0
 10
17.5040076982
 20
13.0219591945
 30
0.0
 10
17.5019767689
 20
13.0212364338
 30
0.0
 10
17.4987273685
 20
13.0200776297
 30
0.0
 10
17.4946655957
 20
13.0186300278
 30
0.0
 10
17.4906038035
 20
13.0171817964
 30
0.0
 10
17.4873544343
 20
13.0160239996
 30
0.0
 10
17.485323427
 20
13.0152987207
 30
0.0
 10
17.4836989686
 20
13.0147222747
 30
0.0
 10
17.4826828893
 20
13.014353381
 30
0.0
 10
17.4819732226
 20
13.0141124205
 30
0.0
 10
17.481565213
 20
13.013947716
 30
0.0
 10
17.4811478388
 20
13.0136812501
 30
0.0
 10
17.4806293276
 20
13.0133830106
 30
0.0
 10
17.4797979177
 20
13.0128863555
 30
0.0
 10
17.4787592689
 20
13.0122722039
 30
0.0
 10
17.4770970878
 20
13.011285835
 30
0.0
 10
17.4750194792
 20
13.0100541526
 30
0.0
 10
17.4725262984
 20
13.0085755853
 30
0.0
 10
17.4700331309
 20
13.0070971659
 30
0.0
 10
17.4675399609
 20
13.0056187033
 30
0.0
 10
17.4650467874
 20
13.0041402654
 30
0.0
 10
17.4625536304
 20
13.0026617722
 30
0.0
 10
17.4604759477
 20
13.0014298581
 30
0.0
 10
17.4588139177
 20
13.0004439619
 30
0.0
 10
17.4575670777
 20
12.9997055363
 30
0.0
 10
17.4565290546
 20
12.9990870121
 30
0.0
 10
17.4558004558
 20
12.9986602651
 30
0.0
 10
17.4553872093
 20
12.9984066977
 30
0.0
 10
17.4550685537
 20
12.9982438809
 30
0.0
 10
17.4547832333
 20
12.9979764853
 30
0.0
 10
17.4543911785
 20
12.997656436
 30
0.0
 10
17.4537105
 20
12.9970793539
 30
0.0
 10
17.4527352698
 20
12.9962638366
 30
0.0
 10
17.451566206
 20
12.9952814124
 30
0.0
 10
17.4500070307
 20
12.9939728421
 30
0.0
 10
17.4480582069
 20
12.9923366732
 30
0.0
 10
17.4457195561
 20
12.9903734667
 30
0.0
 10
17.4433809219
 20
12.988410205
 30
0.0
 10
17.4410422835
 20
12.9864469681
 30
0.0
 10
17.4387036454
 20
12.984483687
 30
0.0
 10
17.4363650101
 20
12.9825205577
 30
0.0
 10
17.4344161376
 20
12.9808841476
 30
0.0
 10
17.4328570617
 20
12.9795760692
 30
0.0
 10
17.431882589
 20
12.9787561306
 30
0.0
 10
17.431103126
 20
12.9781056524
 30
0.0
 10
17.4306156987
 20
12.9776866166
 30
0.0
 10
17.4302263592
 20
12.9773799883
 30
0.0
 10
17.4298348206
 20
12.9769689484
 30
0.0
 10
17.4291486067
 20
12.9762011251
 30
0.0
 10
17.4281688341
 20
12.9751295414
 30
0.0
 10
17.4266009001
 20
12.9734008646
 30
0.0
 10
17.424641084
 20
12.9712448628
 30
0.0
 10
17.4215053244
 20
12.9677925433
 30
0.0
 10
17.4175856236
 20
12.9634781412
 30
0.0
 10
17.4136659955
 20
12.9591631458
 30
0.0
 10
17.4105301196
 20
12.9557117756
 30
0.0
 10
17.4085705944
 20
12.9535534007
 30
0.0
 10
17.4070020641
 20
12.9518295885
 30
0.0
 10
17.4060238094
 20
12.950745621
 30
0.0
 10
17.4053348691
 20
12.9500000404
 30
0.0
 10
17.4049477009
 20
12.9495533469
 30
0.0
 10
17.4045850602
 20
12.9490288852
 30
0.0
 10
17.4041233757
 20
12.9483998895
 30
0.0
 10
17.403022233
 20
12.9468684222
 30
0.0
 10
17.4013676209
 20
12.94458041
 30
0.0
 10
17.3991631279
 20
12.9415244752
 30
0.0
 10
17.3969581918
 20
12.9384699453
 30
0.0
 10
17.3940184316
 20
12.9343967486
 30
0.0
 10
17.3888737787
 20
12.927268884
 30
0.0
 10
17.3844641011
 20
12.9211592071
 30
0.0
 10
17.3815243105
 20
12.9170861067
 30
0.0
  0
SPLINE
  5
43D
100
AcDbEntity
  8
03___PRT_ALL_CURVES
100
AcDbSpline
 62
7
  6
BYLAYER
 70
0
 71
3
 72
99
 73
95
 74
0
 42
0.0000001
 43
0.0000001
 44
0.0000000001
 40
0.0
 40
0.0
 40
0.0
 40
0.0
 40
0.0625
 40
0.09375
 40
0.109375
 40
0.125
 40
0.140625
 40
0.1484375
 40
0.15625
 40
0.16015625
 40
0.1640625
 40
0.166015625
 40
0.1669921875
 40
0.16796875
 40
0.169921875
 40
0.171875
 40
0.1796875
 40
0.1875
 40
0.1953125
 40
0.203125
 40
0.21875
 40
0.25
 40
0.28125
 40
0.296875
 40
0.3046875
 40
0.3125
 40
0.3203125
 40
0.328125
 40
0.330078125
 40
0.33203125
 40
0.3330078125
 40
0.333984375
 40
0.3359375
 40
0.33984375
 40
0.34375
 40
0.3515625
 40
0.359375
 40
0.375
 40
0.390625
 40
0.40625
 40
0.421875
 40
0.4375
 40
0.453125
 40
0.46875
 40
0.4765625
 40
0.484375
 40
0.4921875
 40
0.49609375
 40
0.498046875
 40
0.5
 40
0.501953125
 40
0.50390625
 40
0.5078125
 40
0.515625
 40
0.5234375
 40
0.53125
 40
0.546875
 40
0.5625
 40
0.578125
 40
0.59375
 40
0.609375
 40
0.625
 40
0.640625
 40
0.6484375
 40
0.65625
 40
0.66015625
 40
0.6640625
 40
0.666015625
 40
0.66796875
 40
0.671875
 40
0.6796875
 40
0.6875
 40
0.703125
 40
0.71875
 40
0.75
 40
0.78125
 40
0.796875
 40
0.8046875
 40
0.8125
 40
0.8203125
 40
0.828125
 40
0.830078125
 40
0.83203125
 40
0.833984375
 40
0.8359375
 40
0.83984375
 40
0.84375
 40
0.8515625
 40
0.859375
 40
0.875
 40
0.890625
 40
0.90625
 40
0.9375
 40
1.0
 40
1.0
 40
1.0
 40
1.0
 10
17.3467712265
 20
12.8547489119
 30
0.0
 10
17.34311253
 20
12.8460564698
 30
0.0
 10
17.3376244875
 20
12.8330178015
 30
0.0
 10
17.3312217637
 20
12.81780604
 30
0.0
 10
17.3275630751
 20
12.8091135789
 30
0.0
 10
17.3248190288
 20
12.8025943058
 30
0.0
 10
17.3225324187
 20
12.7971613466
 30
0.0
 10
17.320702917
 20
12.7928154987
 30
0.0
 10
17.319559965
 20
12.7900981611
 30
0.0
 10
17.318644489
 20
12.7879269995
 30
0.0
 10
17.3180748592
 20
12.7865638436
 30
0.0
 10
17.3176710226
 20
12.7856220197
 30
0.0
 10
17.3174482315
 20
12.7850644569
 30
0.0
 10
17.3172554693
 20
12.7844339082
 30
0.0
 10
17.3170042526
 20
12.7836706692
 30
0.0
 10
17.3164097802
 20
12.7818183632
 30
0.0
 10
17.3155145236
 20
12.779048528
 30
0.0
 10
17.314322876
 20
12.7753504854
 30
0.0
 10
17.3131306859
 20
12.7716537614
 30
0.0
 10
17.3115412884
 20
12.7667243359
 30
0.0
 10
17.308759754
 20
12.7580980568
 30
0.0
 10
17.3047861846
 20
12.7457746794
 30
0.0
 10
17.3008125795
 20
12.733451378
 30
0.0
 10
17.2980310951
 20
12.7248249925
 30
0.0
 10
17.2964416189
 20
12.7198957344
 30
0.0
 10
17.2952496703
 20
12.7161984969
 30
0.0
 10
17.294057116
 20
12.7125023822
 30
0.0
 10
17.2931643983
 20
12.7097271485
 30
0.0
 10
17.2925666124
 20
12.707881888
 30
0.0
 10
17.2923214645
 20
12.7071057449
 30
0.0
 10
17.2921161793
 20
12.7065018239
 30
0.0
 10
17.2919444182
 20
12.7058357567
 30
0.0
 10
17.2916594124
 20
12.7046412645
 30
0.0
 10
17.2912441344
 20
12.7029499125
 30
0.0
 10
17.2905842314
 20
12.70023533
 30
0.0
 10
17.2897577974
 20
12.6968449847
 30
0.0
 10
17.2884363723
 20
12.6914188209
 30
0.0
 10
17.2867842926
 20
12.6846366692
 30
0.0
 10
17.2848019251
 20
12.6764978498
 30
0.0
 10
17.2828195224
 20
12.6683590951
 30
0.0
 10
17.2808371322
 20
12.6602203187
 30
0.0
 10
17.278854727
 20
12.6520815643
 30
0.0
 10
17.2768723696
 20
12.6439427437
 30
0.0
 10
17.2752202583
 20
12.6371605956
 30
0.0
 10
17.2738988977
 20
12.6317344244
 30
0.0
 10
17.2729069799
 20
12.6276660329
 30
0.0
 10
17.272083236
 20
12.6242717723
 30
0.0
 10
17.2715010139
 20
12.6219035108
 30
0.0
 10
17.2711770617
 20
12.620538163
 30
0.0
 10
17.2709094595
 20
12.6195481125
 30
0.0
 10
17.2707360362
 20
12.6184282486
 30
0.0
 10
17.2704719545
 20
12.6169803771
 30
0.0
 10
17.2700251172
 20
12.6144255051
 30
0.0
 10
17.2693787762
 20
12.6107867176
 30
0.0
 10
17.2686065921
 20
12.6064154515
 30
0.0
 10
17.2675758169
 20
12.6005887459
 30
0.0
 10
17.2662877586
 20
12.5933047979
 30
0.0
 10
17.264741912
 20
12.5845643035
 30
0.0
 10
17.2631961148
 20
12.5758237419
 30
0.0
 10
17.2616502968
 20
12.5670832056
 30
0.0
 10
17.2601045122
 20
12.5583426356
 30
0.0
 10
17.258558615
 20
12.5496021749
 30
0.0
 10
17.257270715
 20
12.5423181215
 30
0.0
 10
17.2562396168
 20
12.5364916308
 30
0.0
 10
17.2555969519
 20
12.5328483621
 30
0.0
 10
17.2550787631
 20
12.5299376681
 30
0.0
 10
17.2547641516
 20
12.5281095378
 30
0.0
 10
17.2544912611
 20
12.526667525
 30
0.0
 10
17.2542957705
 20
12.525150704
 30
0.0
 10
17.2539896174
 20
12.5224615159
 30
0.0
 10
17.2535334961
 20
12.5186379501
 30
0.0
 10
17.2528141859
 20
12.512510112
 30
0.0
 10
17.2519114583
 20
12.5048537841
 30
0.0
 10
17.2504691013
 20
12.4926017193
 30
0.0
 10
17.2486654606
 20
12.4772873104
 30
0.0
 10
17.2468620889
 20
12.4619726381
 30
0.0
 10
17.24559965
 20
12.4512524503
 30
0.0
 10
17.2448783106
 20
12.4451265657
 30
0.0
 10
17.2443371657
 20
12.4405323175
 30
0.0
 10
17.2437965551
 20
12.4359374398
 30
0.0
 10
17.2433895994
 20
12.4324930462
 30
0.0
 10
17.2431206249
 20
12.4301940394
 30
0.0
 10
17.2429819783
 20
12.4290494365
 30
0.0
 10
17.2428595033
 20
12.4278857805
 30
0.0
 10
17.242773151
 20
12.4262435807
 30
0.0
 10
17.2426388639
 20
12.4242218723
 30
0.0
 10
17.2424387283
 20
12.4209697914
 30
0.0
 10
17.2421835173
 20
12.4169106302
 30
0.0
 10
17.2417779974
 20
12.4104126524
 30
0.0
 10
17.2412701309
 20
12.4022913191
 30
0.0
 10
17.2406611047
 20
12.3925452317
 30
0.0
 10
17.2398489256
 20
12.3795506186
 30
0.0
 10
17.2384276796
 20
12.356809966
 30
0.0
 10
17.2372094457
 20
12.3373180054
 30
0.0
 10
17.2363972948
 20
12.3243233589
 30
0.0
  0
SPLINE
  5
43E
100
AcDbEntity
  8
03___PRT_ALL_CURVES
100
AcDbSpline
 62
7
  6
BYLAYER
 70
0
 71
3
 72
67
 73
63
 74
0
 42
0.0000001
 43
0.0000001
 44
0.0000000001
 40
0.0
 40
0.0
 40
0.0
 40
0.0
 40
0.0625
 40
0.09375
 40
0.125
 40
0.140625
 40
0.15625
 40
0.1640625
 40
0.16796875
 40
0.171875
 40
0.1796875
 40
0.1875
 40
0.21875
 40
0.25
 40
0.28125
 40
0.3125
 40
0.3203125
 40
0.328125
 40
0.33203125
 40
0.3359375
 40
0.34375
 40
0.359375
 40
0.375
 40
0.40625
 40
0.4375
 40
0.453125
 40
0.46875
 40
0.484375
 40
0.4921875
 40
0.49609375
 40
0.5
 40
0.50390625
 40
0.5078125
 40
0.515625
 40
0.53125
 40
0.546875
 40
0.5625
 40
0.59375
 40
0.625
 40
0.640625
 40
0.65625
 40
0.6640625
 40
0.66796875
 40
0.671875
 40
0.6796875
 40
0.6875
 40
0.703125
 40
0.71875
 40
0.75
 40
0.78125
 40
0.796875
 40
0.8125
 40
0.8203125
 40
0.828125
 40
0.83203125
 40
0.8359375
 40
0.84375
 40
0.859375
 40
0.875
 40
0.90625
 40
0.9375
 40
1.0
 40
1.0
 40
1.0
 40
1.0
 10
17.2363972942
 20
12.3243233419
 30
0.0
 10
17.2362421173
 20
12.3152343128
 30
0.0
 10
17.2360095151
 20
12.3016007705
 30
0.0
 10
17.2356987258
 20
12.2834227085
 30
0.0
 10
17.2355058431
 20
12.2720614314
 30
0.0
 10
17.2353484348
 20
12.2629723833
 30
0.0
 10
17.2352571295
 20
12.2572917884
 30
0.0
 10
17.2351790371
 20
12.2533152515
 30
0.0
 10
17.2351565968
 20
12.2510431332
 30
0.0
 10
17.2352177119
 20
12.248771725
 30
0.0
 10
17.2352655455
 20
12.245932222
 30
0.0
 10
17.235403858
 20
12.2391176159
 30
0.0
 10
17.2356013725
 20
12.2288956025
 30
0.0
 10
17.2358707908
 20
12.215266405
 30
0.0
 10
17.2361371825
 20
12.2016368152
 30
0.0
 10
17.2363415069
 20
12.1914156845
 30
0.0
 10
17.236471118
 20
12.1845999506
 30
0.0
 10
17.2365348727
 20
12.1817625112
 30
0.0
 10
17.2365631368
 20
12.1794868449
 30
0.0
 10
17.2366745595
 20
12.177232078
 30
0.0
 10
17.2369081865
 20
12.173295946
 30
0.0
 10
17.2372217809
 20
12.1676678344
 30
0.0
 10
17.237734794
 20
12.1586656846
 30
0.0
 10
17.2383722295
 20
12.1474120456
 30
0.0
 10
17.239010911
 20
12.1361586778
 30
0.0
 10
17.2395219305
 20
12.1271560939
 30
0.0
 10
17.2399042246
 20
12.1204036622
 30
0.0
 10
17.2402260072
 20
12.1147782359
 30
0.0
 10
17.2404449508
 20
12.1108372933
 30
0.0
 10
17.2405799073
 20
12.108590236
 30
0.0
 10
17.2406533884
 20
12.1068911117
 30
0.0
 10
17.2408328919
 20
12.1052448579
 30
0.0
 10
17.2410352481
 20
12.103031411
 30
0.0
 10
17.2414066017
 20
12.0991664712
 30
0.0
 10
17.2419281009
 20
12.0936406382
 30
0.0
 10
17.2425577453
 20
12.0870115534
 30
0.0
 10
17.2433959752
 20
12.0781721406
 30
0.0
 10
17.2444438688
 20
12.0671228359
 30
0.0
 10
17.2454929573
 20
12.0560744772
 30
0.0
 10
17.2463292755
 20
12.0472335509
 30
0.0
 10
17.2468587585
 20
12.0417130971
 30
0.0
 10
17.2472157957
 20
12.0378385067
 30
0.0
 10
17.2474410976
 20
12.0356405278
 30
0.0
 10
17.247746567
 20
12.0335030978
 30
0.0
 10
17.2481009545
 20
12.0308105785
 30
0.0
 10
17.2486833148
 20
12.0265141336
 30
0.0
 10
17.2494060102
 20
12.0211396095
 30
0.0
 10
17.2505652741
 20
12.0125425936
 30
0.0
 10
17.2520132387
 20
12.0017955258
 30
0.0
 10
17.2534619754
 20
11.9910488714
 30
0.0
 10
17.254620004
 20
11.9824511939
 30
0.0
 10
17.2553457878
 20
11.9770783238
 30
0.0
 10
17.2559218169
 20
11.9727784883
 30
0.0
 10
17.2562923219
 20
11.9700946004
 30
0.0
 10
17.256564707
 20
11.9679394527
 30
0.0
 10
17.2569247783
 20
11.9658136471
 30
0.0
 10
17.2575956373
 20
11.9621071182
 30
0.0
 10
17.2585327542
 20
11.9568049649
 30
0.0
 10
17.2600440187
 20
11.9483254942
 30
0.0
 10
17.2619290307
 20
11.9377247944
 30
0.0
 10
17.264947334
 20
11.9207644391
 30
0.0
 10
17.2672105476
 20
11.9080440006
 30
0.0
 10
17.2687194708
 20
11.8995637464
 30
0.0
  0
SPLINE
  5
43F
100
AcDbEntity
  8
03___PRT_ALL_CURVES
100
AcDbSpline
 62
7
  6
BYLAYER
 70
0
 71
3
 72
68
 73
64
 74
0
 42
0.0000001
 43
0.0000001
 44
0.0000000001
 40
0.0
 40
0.0
 40
0.0
 40
0.0
 40
0.0625
 40
0.09375
 40
0.125
 40
0.140625
 40
0.15625
 40
0.1640625
 40
0.16796875
 40
0.171875
 40
0.1796875
 40
0.1875
 40
0.21875
 40
0.25
 40
0.28125
 40
0.3125
 40
0.3203125
 40
0.328125
 40
0.33203125
 40
0.3359375
 40
0.34375
 40
0.359375
 40
0.375
 40
0.40625
 40
0.4375
 40
0.453125
 40
0.46875
 40
0.484375
 40
0.4921875
 40
0.49609375
 40
0.5
 40
0.50390625
 40
0.5078125
 40
0.515625
 40
0.53125
 40
0.546875
 40
0.5625
 40
0.59375
 40
0.625
 40
0.640625
 40
0.65625
 40
0.6640625
 40
0.671875
 40
0.6796875
 40
0.6875
 40
0.71875
 40
0.75
 40
0.78125
 40
0.796875
 40
0.8125
 40
0.8203125
 40
0.828125
 40
0.83203125
 40
0.833984375
 40
0.8359375
 40
0.83984375
 40
0.84375
 40
0.859375
 40
0.875
 40
0.890625
 40
0.90625
 40
0.9375
 40
1.0
 40
1.0
 40
1.0
 40
1.0
 10
17.2687194745
 20
11.899563728
 30
0.0
 10
17.2700049354
 20
11.8936871687
 30
0.0
 10
17.2719332032
 20
11.8848724493
 30
0.0
 10
17.2745039207
 20
11.8731190115
 30
0.0
 10
17.2761112571
 20
11.8657741099
 30
0.0
 10
17.2773956717
 20
11.8598959155
 30
0.0
 10
17.2782017482
 20
11.8562272282
 30
0.0
 10
17.2787593535
 20
11.8536487575
 30
0.0
 10
17.2790883868
 20
11.8521916011
 30
0.0
 10
17.2794565974
 20
11.8507956707
 30
0.0
 10
17.2799034695
 20
11.84902983
 30
0.0
 10
17.2809869865
 20
11.844809041
 30
0.0
 10
17.2826075961
 20
11.8384705566
 30
0.0
 10
17.2847712451
 20
11.8300237249
 30
0.0
 10
17.2869335035
 20
11.8215745455
 30
0.0
 10
17.288557242
 20
11.8152413435
 30
0.0
 10
17.2896367611
 20
11.8110138048
 30
0.0
 10
17.290090948
 20
11.8092603141
 30
0.0
 10
17.2904440654
 20
11.8078389011
 30
0.0
 10
17.2908346016
 20
11.8064855827
 30
0.0
 10
17.2915354257
 20
11.804148914
 30
0.0
 10
17.2925275321
 20
11.8007943091
 30
0.0
 10
17.2941199702
 20
11.7954361625
 30
0.0
 10
17.2961087931
 20
11.7887353464
 30
0.0
 10
17.2980981797
 20
11.7820355352
 30
0.0
 10
17.299689716
 20
11.7766757808
 30
0.0
 10
17.300882949
 20
11.7726550783
 30
0.0
 10
17.3018786957
 20
11.7693074091
 30
0.0
 10
17.3025729916
 20
11.7669583045
 30
0.0
 10
17.3029739908
 20
11.7656249176
 30
0.0
 10
17.3032627433
 20
11.7645996407
 30
0.0
 10
17.3035973541
 20
11.7636708315
 30
0.0
 10
17.3040275059
 20
11.7623987702
 30
0.0
 10
17.3047877238
 20
11.7601883405
 30
0.0
 10
17.3058698577
 20
11.7570223891
 30
0.0
 10
17.3071700653
 20
11.7532267473
 30
0.0
 10
17.3089031938
 20
11.7481647075
 30
0.0
 10
17.3110690989
 20
11.7418372885
 30
0.0
 10
17.3132376284
 20
11.7355108269
 30
0.0
 10
17.3149665578
 20
11.7304472552
 30
0.0
 10
17.316060562
 20
11.7272880502
 30
0.0
 10
17.3169050229
 20
11.7247480211
 30
0.0
 10
17.3176225422
 20
11.7228776783
 30
0.0
 10
17.3183636485
 20
11.7210170535
 30
0.0
 10
17.3198337278
 20
11.7172908038
 30
0.0
 10
17.3220439453
 20
11.7117035435
 30
0.0
 10
17.3249879763
 20
11.7042525876
 30
0.0
 10
17.3274420236
 20
11.6980439506
 30
0.0
 10
17.3294050726
 20
11.6930764958
 30
0.0
 10
17.3306321064
 20
11.6899729532
 30
0.0
 10
17.3316134731
 20
11.6874875755
 30
0.0
 10
17.3322274138
 20
11.6859400151
 30
0.0
 10
17.3326559977
 20
11.6848450978
 30
0.0
 10
17.3329027404
 20
11.6842376192
 30
0.0
 10
17.3331564047
 20
11.6836986468
 30
0.0
 10
17.3334711192
 20
11.6830015156
 30
0.0
 10
17.3342283811
 20
11.6813476729
 30
0.0
 10
17.3353634562
 20
11.6788588143
 30
0.0
 10
17.3368773571
 20
11.6755449627
 30
0.0
 10
17.338391133
 20
11.6722298734
 30
0.0
 10
17.3404095444
 20
11.6678101863
 30
0.0
 10
17.343941744
 20
11.6600755314
 30
0.0
 10
17.3469693506
 20
11.6534458966
 30
0.0
 10
17.3489877535
 20
11.6490261246
 30
0.0
  0
LINE
  5
440
100
AcDbEntity
  8
03___PRT_ALL_CURVES
100
AcDbLine
 62
7
  6
BYLAYER
 10
18.4132899907
 20
12.6540378326
 11
18.4086942196
 21
12.6772284285
  0
ELLIPSE
  5
441
100
AcDbEntity
  8
0
100
AcDbEllipse
 62
7
  6
BYLAYER
 10
4.99375
 20
11.7985753968
 30
0.0
 11
0.0
 21
0.0336629452
 31
0.0
 40
0.7426563504
 41
-1.5707963268
 42
0.0
  0
ELLIPSE
  5
442
100
AcDbEntity
  8
0
100
AcDbEllipse
 62
7
  6
BYLAYER
 10
4.79375
 20
11.7985753968
 30
0.0
 11
-0.0
 21
0.0336629452
 31
0.0
 40
0.7426563504
 41
0.0
 42
1.5707963268
  0
ELLIPSE
  5
443
100
AcDbEntity
  8
0
100
AcDbEllipse
 62
7
  6
BYLAYER
 10
15.5942668353
 20
11.7976344298
 30
0.0
 11
0.0007485012
 21
0.0419073231
 31
0.0
 40
0.5493142414
 41
0.0098109149
 42
1.0856749776
  0
ELLIPSE
  5
444
100
AcDbEntity
  8
0
100
AcDbEllipse
 62
7
  6
BYLAYER
 10
15.7784790341
 20
11.7976344298
 30
0.0
 11
0.0007485012
 21
0.0419073231
 31
0.0
 40
0.5493142414
 41
-1.5609854119
 42
0.0098109149
  0
ELLIPSE
  5
445
100
AcDbEntity
  8
0
100
AcDbEllipse
 62
7
  6
BYLAYER
 10
15.7732528471
 20
11.3785410297
 30
0.0
 11
0.0007485012
 21
0.0419073231
 31
0.0
 40
0.5493142414
 41
-2.055917676
 42
-1.5609854119
  0
ENDSEC
  0
SECTION
  2
OBJECTS
  0
DICTIONARY
  5
C
100
AcDbDictionary
280
0
281
1
  3
ACAD_GROUP
350
D
  3
ACAD_MLINESTYLE
350
17
  3
ACAD_LAYOUT
350
1A
  3
ACAD_PLOTSETTINGS
350
19
  3
ACAD_PLOTSTYLENAME
350
E
  0
DICTIONARY
  5
D
102
{ACAD_REACTORS
330
C
102
}
100
AcDbDictionary
280
0
281
1
  0
ACDBDICTIONARYWDFLT
  5
E
102
{ACAD_REACTORS
330
C
102
}
100
AcDbDictionary
281
1
  3
Normal
350
F
100
AcDbDictionaryWithDefault
340
F
  0
DICTIONARY
  5
17
102
{ACAD_REACTORS
330
C
102
}
100
AcDbDictionary
280
0
281
1
  3
Standard
350
18
  0
DICTIONARY
  5
19
102
{ACAD_REACTORS
330
C
102
}
100
AcDbDictionary
281
1
  0
DICTIONARY
  5
1A
102
{ACAD_REACTORS
330
C
102
}
100
AcDbDictionary
281
1
  3
Model
350
446
  3
Layout1
350
447
  0
ACDBPLACEHOLDER
  5
F
102
{ACAD_REACTORS
330
E
102
}
  0
MLINESTYLE
  5
18
102
{ACAD_REACTORS
330
17
102
}
100
AcDbMlineStyle
  2
STANDARD
 70
0
  3

 62
256
 51
90.0
 52
90.0
 71
2
 49
0.5
 62
256
  6
BYLAYER
 49
-0.5
 62
256
  6
BYLAYER
  0
LAYOUT
  5
446
102
{ACAD_REACTORS
330
1A
102
}
100
AcDbPlotSettings
  1

  2
none_device
  4
ANSI_C_(22.00_x_17.00_Inches)
  6

 40
0.0
 41
0.0
 42
0.0
 43
0.0
 44
558.8
 45
431.8
 46
0.0
 47
0.0
 48
0.0
 49
0.0
140
0.0
141
0.0
142
1.0
143
1.0
 70
1024
 72
0
 73
0
 74
0
  7

 75
0
147
1.0
148
0.0
149
0.0
100
AcDbLayout
  1
Model
 70
0
 71
0
 10
0.0
 20
0.0
 11
22.0
 21
17.0
 12
0.0
 22
0.0
 32
0.0
 14
0.0
 24
0.0
 34
0.0
 15
0.0
 25
0.0
 35
0.0
146
0.0
 13
0.0
 23
0.0
 33
0.0
 16
1.0
 26
0.0
 36
0.0
 17
0.0
 27
1.0
 37
0.0
 76
0
330
218
345
0
346
0
  0
LAYOUT
  5
447
102
{ACAD_REACTORS
330
1A
102
}
100
AcDbPlotSettings
  1

  2
none_device
  4
ANSI_C_(22.00_x_17.00_Inches)
  6

 40
0.0
 41
0.0
 42
0.0
 43
0.0
 44
558.8
 45
431.8
 46
0.0
 47
0.0
 48
0.0
 49
0.0
140
0.0
141
0.0
142
1.0
143
1.0
 70
0
 72
0
 73
0
 74
0
  7

 75
0
147
1.0
148
0.0
149
0.0
100
AcDbLayout
  1
Layout1
 70
0
 71
1
 10
0.0
 20
0.0
 11
22.0
 21
17.0
 12
0.0
 22
0.0
 32
0.0
 14
0.0
 24
0.0
 34
0.0
 15
0.0
 25
0.0
 35
0.0
146
0.0
 13
0.0
 23
0.0
 33
0.0
 16
1.0
 26
0.0
 36
0.0
 17
0.0
 27
1.0
 37
0.0
 76
0
330
219
345
0
346
0
  0
ENDSEC
  0
EOF
